Song name
# A B C D E F G H I J K L M N O P Q R S T U V W X Y Z

Cage The Elephant - False Skorpion tab

Tabbed By: Saviano Perry
smashingpumpkins11@gmail.com


False Skorpion 
Back Against the Wall-Single
Cage the Elephant

Intro:
e|------------| 
B|---10-9-----|
G|-999-99-----|x4
D|-999-99-----|
A|-777-77-----|
E|------------|

Verse:
e|--------------------------|  |-----------|
B|---10-9-------------------|  |-----------|
G|-999-99----999999-777777--|  |---7-7-5---|
D|-999-99-x4-999999-777777--|x2|-7-7-7-5-4-|
A|-777-77----777777-555555--|  |-7-5-5-3-4-|
E|--------------------------|  |-5-------2-|
Tap to rate this tab
# A B C D E F G H I J K L M N O P Q R S T U V W X Y Z