Song name
# A B C D E F G H I J K L M N O P Q R S T U V W X Y Z

Cage The Elephant - Shake Me Down tab

#----------------------------------PLEASE NOTE--------------------------------#
#This file is the author's own work and represents their interpretation of the#
#song. You may only use this file for private study, scholarship, or research.#
#-----------------------------------------------------------------------------#
#-- File created with Instab - http://www.pconline.com/~smcarey/instab.html --#
#-----------------------------------------------------------------------------#

Author/Artist: Cage The Elephant
Title: Shake Me Down

h hammer on
\ slide down

Standard Tuning

---|----0-----0--|-------0-------0---------0-------0-|--|------|--------------|
---|-------------|-----------------------------------|--|------|--------------|
---|-2-----1-----|-1-2-2---2-1-1---1h2-2-2---2-1-1---|--|------|--------------|
---|-2-----2-----|-2-2-2---2-2-2---2---2-2---2-2-2---|--|------|--------------|
---|-------------|-----------------------------------|--|------|--------------|
---|-------------|-----------------------------------|--|------|--------------|
     P     P       Intro/Verse                            Drums

---|-----5-------4-------2-------2---|--|--------------------|------|---------|
---|---2---2---2---2---2---2---3---3-|--|-5------------------|------|---------|
---|-2-------2-------2-------4-------|--|-4------------------|------|---------|
---|---------------------------------|--|-x------------------|------|---------|
---|---------------------------------|--|-7------------------|------|---------|
---|---------------------------------|--|--------------------|------|---------|
     Verse pt.2                           "I keep my eyes..."  Verse

---|---------------------------------------------|--|-17--17---|--|-14--14---|
---|---------------------------------------------|--|-14--14---|--|-14--14---|
---|---------------------------------------------|--|----------|--|----------|
---|---------------------------------------------|--|----------|--|----------|
---|---------------------------------------------|--|----------|--|----------|
---|-5-5-5-5-5--9-9-9-9-9--2-2-2-2-2--7-7-7-7-7--|--|----------|--|----------|
    Bassy Verse                                       G1            End

---|----------------|-5--5----------------|--|--------------------------------|
---|-5--------------|-x--x----------------|--|--------------------------------|
---|-4--------------|-6--6----------------|--|--------------------------------|
---|-x--------------|-------6--4--2-------|--|--------------------------------|
---|-7--------------|-------6--4--2-------|--|--------------------------------|
---|----------------|---------------------|--|--------------------------------|
    "I keep my eyes"  Bridge 1      strum

----|--------9\--4---|--|-----------------|-----------------------------------|
----|----------------|--|-----------------|-----------------------------------|
----|---6----6---6---|--|---6---6---6---6-|-----------------------------------|
----|-7-7-7----------|--|-4-4-4-4-4-4-4-4-|-----------------------------------|
----|-7---7----------|--|-4---4---4---4---|-----------------------------------|
----|----------------|--|-----------------|-----------------------------------|
  Interlude  P   P

-------------------|-------------------------------------|--------------------|
-------------------|-------------------------------------|--------------------|
-------------------|-------------------------------------|--------------------|
-------------------|-2------------4--------------7-------|--------------------|
-------------------|-2------------4--------------7-------|--------------------|
-------------------|-------------------------------------|--------------------|
   Bridge 2 Chords  "Walk around..corner,,,,,..never"

---|-------------------------------------------------------------------------|
---|-17----------------------------------17----------------------------------|
---|-14---------------------------14-----14----------------------------------|
---|------------------------------14-----------------------------------------|
---|----------12------7---------------------------12------7777777--9999999---|
---|-------------------------------------------------------------------------|
    "Even on..day     even on a..day    even on a..      even......day

---|----------------------------------|--|---------------------------------|--|
---|----------------------------------|--|---------------------------------|--|
---|----------------------------------|--|-4-------------------------------|--|
---|-0---------7--------2--------4----|--|-2-------------------------------|--|
---|-0---------7--------2--------4----|--|-2-------------------------------|--|
---|----------------------------------|--|---------------------------------|--|
    "Even on...day      even.....day.      "I keep my eyes fix on the....."

---|-----0-------0---|--|-----------------------------------------------------|
---|-----------------|--|-----------------------------------------------------|
---|---2---2---1---1-|--|-----------------------------------------------------|
---|-2-------2-------|--|-----------------------------------------------------|
---|-----------------|--|-----------------------------------------------------|
---|-----------------|--|-----------------------------------------------------|
    G1 Outro

---|-----------------|--|-----------------------------------------------------|
---|-----------------|--|-----------------------------------------------------|
---|-----------------|--|-----------------------------------------------------|
---|-----------------|--|-----------------------------------------------------|
---|-11h12-12--12-11-|--|-----------------------------------------------------|
---|-----------------|--|-----------------------------------------------------|
    G2 Outro
Tap to rate this tab
# A B C D E F G H I J K L M N O P Q R S T U V W X Y Z