Song name
# A B C D E F G H I J K L M N O P Q R S T U V W X Y Z

Cage The Elephant - Come A Little Closer tab

Cage The Elephant
Come A Little Closer
Melophobia
2013

Enjoy!

- Ariel

_____________________________________________________________________



Time shakes, found you at the..
e|-------------------------------|
B|-------------------------------|
G|--------6----------------------|
D|-----------6------6------------|
A|---4-4---------4---------------|
E|-------------------------------| x2


..water, at first you were my..
e|-------------------------------|
B|-------------------------------|
G|-------------------------------|
D|--------6----------------------|
A|------------6------6-----------|
E|---4-4---------4---------------| x2


father, now I love you like a..
e|-------------------------------|
B|-------------------------------|
G|-------------------------------|
D|-------4-----------------------|
A|------------4------4-----------|
E|---2-2---------2---------------| x2


..brother
e|-------------------------------|
B|-------------------------------|
G|--------6----------------------|
D|-----------6------6------------|
A|---4-4---------4---------------|
E|-------------------------------| x2


Earthquakes shake the dust be-..
e|-------------------------------|
B|-------------------------------|
G|--------6----------------------|
D|-----------6------6------------|
A|---4-4---------4---------------|
E|-------------------------------| x2


..hind you, this weather toss will..
e|-------------------------------|
B|-------------------------------|
G|-------------------------------|
D|--------6----------------------|
A|------------6------6-----------|
E|---4-4---------4---------------| x2


..blind you, still not know, I seem..
e|-------------------------------|
B|-------------------------------|
G|-------------------------------|
D|-------4-----------------------|
A|------------4------4-----------|
E|---2-2---------2---------------| x2



..blind
e|------------------------------------------|
B|------------------------------------------|
G|-6-6-6-6-6-6-6-6---9-9-9-9---11-11-11-11--|
D|-6-6-6-6-6-6-6-6---9-9-9-9---11-11-11-11--|
A|-4-4-4-4-4-4-4-4---7-7-7-7---9--9--9--9---|
E|------------------------------------------|


-------------------------------------


[Chorus]

Come a little...
e|--------------------|
B|--------------------|
G|--------------------|
D|-7-7-7-7-7-7-7-7----|
A|-7-7-7-7-7-7-7-7----|
E|-5-5-5-5-5-5-5-5----|


...closer than you...
e|-------------------------|
B|-------------------------|
G|--3-3-3-3-3-3-3-3--------|
D|--4-4-4-4-4-4-4-4--------|
A|--4-4-4-4-4-4-4-4--------|
E|--2-2-2-2-2-2-2-2--------|


..seem
e|-------------------------|
B|-------------------------|
G|--6-6-6-6-6-6-6-6--------|
D|--6-6-6-6-6-6-6-6--------|
A|--4-4-4-4-4-4-4-4--------|
E|-------------------------|


Come on, come on, come.. 
e|-------------------------|
B|-------------------------|
G|--6-6-6-6-4-4-4-4--------|
D|--6-6-6-6-4-4-4-4--------|
A|--4-4-4-4-2-2-2-2--------|
E|-------------------------|


..on, Things arenít always what..
e|--------------------|
B|--------------------|
G|--------------------|
D|-7-7-7-7-7-7-7-7----|
A|-7-7-7-7-7-7-7-7----|
E|-5-5-5-5-5-5-5-5----|


..they seem to be
e|-------------------------|
B|-------------------------|
G|--3-3-3-3-3-3-3-3--------|
D|--4-4-4-4-4-4-4-4--------|
A|--4-4-4-4-4-4-4-4--------|
E|--2-2-2-2-2-2-2-2--------|


Come on, come on, come..
e|-------------------------|
B|-------------------------|
G|--6-6-6-6-4-4-4-4--------|
D|--6-6-6-6-4-4-4-4--------|
A|--4-4-4-4-2-2-2-2--------|
E|-------------------------|


..on, Do you under-..
e|--------------------|
B|--------------------|
G|--------------------|
D|-7-7-7-7-7-7-7-7----|
A|-7-7-7-7-7-7-7-7----|
E|-5-5-5-5-5-5-5-5----|


..stand the things that you would..
e|-------------------------|
B|-------------------------|
G|--3-3-3-3-3-3-3-3--------|
D|--4-4-4-4-4-4-4-4--------|
A|--4-4-4-4-4-4-4-4--------|
E|--2-2-2-2-2-2-2-2--------|


..see here
e|-------------------------|
B|-------------------------|
G|--6-6-6-6-6-6-6-6--------|
D|--6-6-6-6-6-6-6-6--------|
A|--4-4-4-4-4-4-4-4--------|
E|-------------------------|


Come on, come on, come..
e|-------------------------|
B|-------------------------|
G|--6-6-6-6-4-4-4-4--------|
D|--6-6-6-6-4-4-4-4--------|
A|--4-4-4-4-2-2-2-2--------|
E|-------------------------|


..on, Do you under-..
e|--------------------|
B|--------------------|
G|--------------------|
D|-7-7-7-7-7-7-7-7----|
A|-7-7-7-7-7-7-7-7----|
E|-5-5-5-5-5-5-5-5----|


..stand the things that youíve
e|-------------------------|..
B|-------------------------|
G|--3-3-3-3-3-3-3-3--------|
D|--4-4-4-4-4-4-4-4--------|
A|--4-4-4-4-4-4-4-4--------|
E|--2-2-2-2-2-2-2-2--------|


..been dreaming
e|-------------------------|
B|-------------------------|
G|--6-6-6-6-6-6-6-6--------|
D|--6-6-6-6-6-6-6-6--------|
A|--4-4-4-4-4-4-4-4--------|
E|-------------------------|


Come a little...
e|--------------------|
B|--------------------|
G|--------------------|
D|-7-7-7-7-7-7-7-7----|
A|-7-7-7-7-7-7-7-7----|
E|-5-5-5-5-5-5-5-5----|


...closer than you...
e|-------------------------|
B|-------------------------|
G|--3-3-3-3-3-3-3-3--------|
D|--4-4-4-4-4-4-4-4--------|
A|--4-4-4-4-4-4-4-4--------|
E|--2-2-2-2-2-2-2-2--------|


..seem
e|-------------------------|
B|-------------------------|
G|--6----------------------|
D|--6----------------------|
A|--4----------------------|
E|-------------------------| <-- hold


-------------------------------------


Heartbreaks, that have me rest upon your..
e|-------------------------------|
B|-------------------------------|
G|--------6----------------------|
D|-----------6------6------------|
A|---4-4---------4---------------|
E|-------------------------------| x2


..shoulder, Will you buy my...?
e|-------------------------------|
B|-------------------------------|
G|-------------------------------|
D|--------6----------------------|
A|------------6------6-----------|
E|---4-4---------4---------------| x2


So now I know I found you..
e|-------------------------------|
B|-------------------------------|
G|-------------------------------|
D|-------4-----------------------|
A|------------4------4-----------|
E|---2-2---------2---------------| x2


..there, Uuuh wanna see if you can..
e|-------------------------------|
B|-------------------------------|
G|--------6----------------------|
D|-----------6------6------------|
A|---4-4---------4---------------|
E|-------------------------------| x2


..change it..
e|-------------------------------|
B|-------------------------------|
G|-------------------------------|
D|--------6----------------------|
A|------------6------6-----------|
E|---4-4---------4---------------| x2


..change it, still not know, I seem..
e|-------------------------------|
B|-------------------------------|
G|-------------------------------|
D|-------4-----------------------|
A|------------4------4-----------|
E|---2-2---------2---------------| x2



..good
e|------------------------------------------|
B|------------------------------------------|
G|-6-6-6-6-6-6-6-6---9-9-9-9---11-11-11-11--|
D|-6-6-6-6-6-6-6-6---9-9-9-9---11-11-11-11--|
A|-4-4-4-4-4-4-4-4---7-7-7-7---9--9--9--9---|
E|------------------------------------------|



[Chorus]

Come a little...
e|--------------------|
B|--------------------|
G|--------------------|
D|-7-7-7-7-7-7-7-7----|
A|-7-7-7-7-7-7-7-7----|
E|-5-5-5-5-5-5-5-5----|


...closer than you...
e|-------------------------|
B|-------------------------|
G|--3-3-3-3-3-3-3-3--------|
D|--4-4-4-4-4-4-4-4--------|
A|--4-4-4-4-4-4-4-4--------|
E|--2-2-2-2-2-2-2-2--------|


..seem
e|-------------------------|
B|-------------------------|
G|--6-6-6-6-6-6-6-6--------|
D|--6-6-6-6-6-6-6-6--------|
A|--4-4-4-4-4-4-4-4--------|
E|-------------------------|


Come on, come on, come.. 
e|-------------------------|
B|-------------------------|
G|--6-6-6-6-4-4-4-4--------|
D|--6-6-6-6-4-4-4-4--------|
A|--4-4-4-4-2-2-2-2--------|
E|-------------------------|


..on, Things arenít always what..
e|--------------------|
B|--------------------|
G|--------------------|
D|-7-7-7-7-7-7-7-7----|
A|-7-7-7-7-7-7-7-7----|
E|-5-5-5-5-5-5-5-5----|


..they seem to be
e|-------------------------|
B|-------------------------|
G|--3-3-3-3-3-3-3-3--------|
D|--4-4-4-4-4-4-4-4--------|
A|--4-4-4-4-4-4-4-4--------|
E|--2-2-2-2-2-2-2-2--------|


Come on, come on, come..
e|-------------------------|
B|-------------------------|
G|--6-6-6-6-4-4-4-4--------|
D|--6-6-6-6-4-4-4-4--------|
A|--4-4-4-4-2-2-2-2--------|
E|-------------------------|


..on, Do you under-..
e|--------------------|
B|--------------------|
G|--------------------|
D|-7-7-7-7-7-7-7-7----|
A|-7-7-7-7-7-7-7-7----|
E|-5-5-5-5-5-5-5-5----|


..stand the things that you would..
e|-------------------------|
B|-------------------------|
G|--3-3-3-3-3-3-3-3--------|
D|--4-4-4-4-4-4-4-4--------|
A|--4-4-4-4-4-4-4-4--------|
E|--2-2-2-2-2-2-2-2--------|


..see here
e|-------------------------|
B|-------------------------|
G|--6-6-6-6-6-6-6-6--------|
D|--6-6-6-6-6-6-6-6--------|
A|--4-4-4-4-4-4-4-4--------|
E|-------------------------|


Come on, come on, come..
e|-------------------------|
B|-------------------------|
G|--6-6-6-6-4-4-4-4--------|
D|--6-6-6-6-4-4-4-4--------|
A|--4-4-4-4-2-2-2-2--------|
E|-------------------------|


..on, Do you under-..
e|--------------------|
B|--------------------|
G|--------------------|
D|-7-7-7-7-7-7-7-7----|
A|-7-7-7-7-7-7-7-7----|
E|-5-5-5-5-5-5-5-5----|


..stand the things that youíve
e|-------------------------|
B|-------------------------|
G|--3-3-3-3-3-3-3-3--------|
D|--4-4-4-4-4-4-4-4--------|
A|--4-4-4-4-4-4-4-4--------|
E|--2-2-2-2-2-2-2-2--------|


..been dreaming
e|-------------------------|
B|-------------------------|
G|--6-6-6-6-6-6-6-6--------|
D|--6-6-6-6-6-6-6-6--------|
A|--4-4-4-4-4-4-4-4--------|
E|-------------------------|


Come a little...
e|--------------------|
B|--------------------|
G|--------------------|
D|-7-7-7-7-7-7-7-7----|
A|-7-7-7-7-7-7-7-7----|
E|-5-5-5-5-5-5-5-5----|


...closer than you...
e|-------------------------|
B|-------------------------|
G|--3-3-3-3-3-3-3-3--------|
D|--4-4-4-4-4-4-4-4--------|
A|--4-4-4-4-4-4-4-4--------|
E|--2-2-2-2-2-2-2-2--------|


..seem
e|-------------------------|
B|-------------------------|
G|--6-6-6-6-6-6-6-6--------|
D|--6-6-6-6-6-6-6-6--------|
A|--4-4-4-4-4-4-4-4--------|
E|-------------------------|


Come on, come on, come..
e|-------------------------|
B|-------------------------|
G|--6-6-6-6-4-4-4-4--------|
D|--6-6-6-6-4-4-4-4--------|
A|--4-4-4-4-2-2-2-2--------|
E|-------------------------|


..on, Come a little...
e|--------------------|
B|--------------------|
G|--------------------|
D|-7-7-7-7-7-7-7-7----|
A|-7-7-7-7-7-7-7-7----|
E|-5-5-5-5-5-5-5-5----|


...closer than you...
e|-------------------------|
B|-------------------------|
G|--3-3-3-3-3-3-3-3--------|
D|--4-4-4-4-4-4-4-4--------|
A|--4-4-4-4-4-4-4-4--------|
E|--2-2-2-2-2-2-2-2--------|


..seem
e|-------------------------|
B|-------------------------|
G|--6----------------------|
D|--6----------------------|
A|--4----------------------|
E|-------------------------| <-- hold



-----------------------------------


e|---------------------------|
B|---------------------------|
G|------------------------9--|
D|--11-11-11-11-11-11---9----|
A|---------------------------|
E|---------------------------| X5


Ten thousand people stand alone now
And in the evening the sun sets,
Tomorrow it will rise
Time flies by, they all sing along
Time flies by, they all sing along
Time flies by, they all sing along
Time flies by, by
e|----------------------|
B|----------------------|
G|----------------------|
D|-7---4----6-----------|
A|-7---4----6-----------|
E|-5---2----4-----------| X6

Come a little...
e|--------------------|
B|--------------------|
G|--------------------|
D|-7-7-7-7-7-7-7-7----|
A|-7-7-7-7-7-7-7-7----|
E|-5-5-5-5-5-5-5-5----|


...closer than you...
e|-------------------------|
B|-------------------------|
G|--3-3-3-3-3-3-3-3--------|
D|--4-4-4-4-4-4-4-4--------|
A|--4-4-4-4-4-4-4-4--------|
E|--2-2-2-2-2-2-2-2--------|


..seem
e|-------------------------|
B|-------------------------|
G|--6-6-6-6-6-6-6-6--------|
D|--6-6-6-6-6-6-6-6--------|
A|--4-4-4-4-4-4-4-4--------|
E|-------------------------|


Come on, come on, come.. 
e|-------------------------|
B|-------------------------|
G|--6-6-6-6-4-4-4-4--------|
D|--6-6-6-6-4-4-4-4--------|
A|--4-4-4-4-2-2-2-2--------|
E|-------------------------|


..on, Things arenít always what..
e|--------------------|
B|--------------------|
G|--------------------|
D|-7-7-7-7-7-7-7-7----|
A|-7-7-7-7-7-7-7-7----|
E|-5-5-5-5-5-5-5-5----|


..they seem to be
e|-------------------------|
B|-------------------------|
G|--3-3-3-3-3-3-3-3--------|
D|--4-4-4-4-4-4-4-4--------|
A|--4-4-4-4-4-4-4-4--------|
E|--2-2-2-2-2-2-2-2--------|


Come on, come on, come..
e|-------------------------|
B|-------------------------|
G|--6-6-6-6-4-4-4-4--------|
D|--6-6-6-6-4-4-4-4--------|
A|--4-4-4-4-2-2-2-2--------|
E|-------------------------|


..on, Do you under-..
e|--------------------|
B|--------------------|
G|--------------------|
D|-7-7-7-7-7-7-7-7----|
A|-7-7-7-7-7-7-7-7----|
E|-5-5-5-5-5-5-5-5----|


..stand the things that you would..
e|-------------------------|
B|-------------------------|
G|--3-3-3-3-3-3-3-3--------|
D|--4-4-4-4-4-4-4-4--------|
A|--4-4-4-4-4-4-4-4--------|
E|--2-2-2-2-2-2-2-2--------|


..see here
e|-------------------------|
B|-------------------------|
G|--6-6-6-6-6-6-6-6--------|
D|--6-6-6-6-6-6-6-6--------|
A|--4-4-4-4-4-4-4-4--------|
E|-------------------------|


Come on, come on, come..
e|-------------------------|
B|-------------------------|
G|--6-6-6-6-4-4-4-4--------|
D|--6-6-6-6-4-4-4-4--------|
A|--4-4-4-4-2-2-2-2--------|
E|-------------------------|


..on, Do you under-..
e|--------------------|
B|--------------------|
G|--------------------|
D|-7-7-7-7-7-7-7-7----|
A|-7-7-7-7-7-7-7-7----|
E|-5-5-5-5-5-5-5-5----|


..stand the things that youíve
e|-------------------------|
B|-------------------------|
G|--3-3-3-3-3-3-3-3--------|
D|--4-4-4-4-4-4-4-4--------|
A|--4-4-4-4-4-4-4-4--------|
E|--2-2-2-2-2-2-2-2--------|


..been dreaming
e|-------------------------|
B|-------------------------|
G|--6-6-6-6-6-6-6-6--------|
D|--6-6-6-6-6-6-6-6--------|
A|--4-4-4-4-4-4-4-4--------|
E|-------------------------|


Come a little...
e|--------------------|
B|--------------------|
G|--------------------|
D|-7-7-7-7-7-7-7-7----|
A|-7-7-7-7-7-7-7-7----|
E|-5-5-5-5-5-5-5-5----|


...closer than you...
e|-------------------------|
B|-------------------------|
G|--3-3-3-3-3-3-3-3--------|
D|--4-4-4-4-4-4-4-4--------|
A|--4-4-4-4-4-4-4-4--------|
E|--2-2-2-2-2-2-2-2--------|


..seem
e|-------------------------|
B|-------------------------|
G|--6-6-6-6-6-6-6-6--------|
D|--6-6-6-6-6-6-6-6--------|
A|--4-4-4-4-4-4-4-4--------|
E|-------------------------|


Come on, come on, come..
e|-------------------------|
B|-------------------------|
G|--6-6-6-6-4-4-4-4--------|
D|--6-6-6-6-4-4-4-4--------|
A|--4-4-4-4-2-2-2-2--------|
E|-------------------------|


..on, Come a little...
e|--------------------|
B|--------------------|
G|--------------------|
D|-7-7-7-7-7-7-7-7----|
A|-7-7-7-7-7-7-7-7----|
E|-5-5-5-5-5-5-5-5----|


...closer than you...
e|-------------------------|
B|-------------------------|
G|--3-3-3-3-3-3-3-3--------|
D|--4-4-4-4-4-4-4-4--------|
A|--4-4-4-4-4-4-4-4--------|
E|--2-2-2-2-2-2-2-2--------|


..seem
e|-------------------------|
B|-------------------------|
G|--6-6-6-6-6-6-6-6--------|
D|--6-6-6-6-6-6-6-6--------|
A|--4-4-4-4-4-4-4-4--------|
E|-------------------------|



Come a little...
e|--------------------|
B|--------------------|
G|--------------------|
D|-7-7-7-7-7-7-7-7----|
A|-7-7-7-7-7-7-7-7----|
E|-5-5-5-5-5-5-5-5----|


...closer than you...
e|-------------------------|
B|-------------------------|
G|--3-3-3-3-3-3-3-3--------|
D|--4-4-4-4-4-4-4-4--------|
A|--4-4-4-4-4-4-4-4--------|
E|--2-2-2-2-2-2-2-2--------|


..seem
e|-------------------------|
B|-------------------------|
G|--6-6-6-6-6-6-6-6--------|
D|--6-6-6-6-6-6-6-6--------|
A|--4-4-4-4-4-4-4-4--------|
E|-------------------------|


Come a little...
e|--------------------|
B|--------------------|
G|--------------------|
D|-7-7-7-7-7-7-7-7----|
A|-7-7-7-7-7-7-7-7----|
E|-5-5-5-5-5-5-5-5----|


...closer than you...
e|-------------------------|
B|-------------------------|
G|--3-3-3-3-3-3-3-3--------|
D|--4-4-4-4-4-4-4-4--------|
A|--4-4-4-4-4-4-4-4--------|
E|--2-2-2-2-2-2-2-2--------|


..seem
e|-------------------------|
B|-------------------------|
G|--6-6-6-6-6-6-6-6--------|
D|--6-6-6-6-6-6-6-6--------|
A|--4-4-4-4-4-4-4-4--------|
E|-------------------------|
Tap to rate this tab
 
# A B C D E F G H I J K L M N O P Q R S T U V W X Y Z