Song name
# A B C D E F G H I J K L M N O P Q R S T U V W X Y Z

Cage The Elephant - Aint No Rest For The Wicked tab

Tuning is open G (DGDGBD)

USE A GUITAR SLIDE.

AINT NO REST FOR THE WICKED- CAGE THE ELEPHANT

INTRO

D|--------------------------|----------------------------------------|
B|--------------------------|----------------------------------------|
G|-0--3--0--3/5--0-(x3-3--5)|-0--3--0--3/5--0-3/5-5-5-5-5-5-5-5------|
D|-0--3--0--3/5--0-(x3-3--5)|-0--3--0--3/5--0-3/5-5-5-5-5-5-5-5------|
G|-0--3--0--3/5--0-(x3-3--5)|-0--3--0--3/5--0-3/5-5-5-5-5-5-5-5------|
D|--------------------------|----------------------------------------|

D|-----------------------|
B|-----------------------|
G|-0-3-0-x--0-3-0--0-3-0-|
D|-0-3-0-x--0-3-0--0-3-0-|
G|-0-3-0-x--0-3-0--0-3-0-|
D|-----------------------|

VERSE ("I was walking down the street...")

D|-------------------------------------------------------------------|
B|-------------------------------------------------------------------|
G|0-0--x--3-3--x--5-5--x--3-3-x---x-0-0----------3 times-------------|
D|0-0--x--3-3--x--5-5--x--3-3-x-3-x-0-0------------------------------|
G|0-0--x--3-3--x--5-5--x--3-3-x-3-x-0-0------------------------------|
D|----------------------------x-3-x----------------------------------|


on fourth time:

D|-------------------------------------------------------------------|
B|-------------------------------------------------------------------|
G|0-0--x--3-3--x--5-5--x--0-3-0---0-3-0------------------------------|
D|0-0--x--3-3--x--5-5--x--0-3-0---0-3-0------------------------------|
G|0-0--x--3-3--x--5-5--x--0-3-0---0-3-0------------------------------|
D|-------------------------------------------------------------------|


Hook ("There aint no rest for the wicked...")

D|-------------------------------------------------------------------|
B|-------------------------------------------------------------------|
G|3/12-12--3/5-5-5-5-5-5----------------repeat until verse-----------|
D|3/12-12--3/5-5-5-5-5-5---------------------------------------------|
G|3/12-12--3/5-5-5-5-5-5---------------------------------------------|
D|-------------------------------------------------------------------|


PLAY VERSE AGAIN
PLAY CHORUS AGAIN

SOLO:(not 100 percent sure, but you can play the chorus here if you think it sounds off.)


D|--------------------------------------------------------------------|
B|-9/12--7/9--------9/12--7/9--------9/12--7/9------9/12-7/9-9/12-7/9-|
G|-------------(9)---------------(9)-------------(9)------------------|
D|-----------9-----------------9----------------9---------------------|
G|--------------------------------------------------------------------|
D|--------------------------------------------------------------------|



PLAY FINAL VERSE
THEN PLAY FINAL CHORUS.
END WITH

D|-----|
B|--0--|
G|--0--|
D|--0--|
G|--0--|
D|-----|
Tap to rate this tab
# A B C D E F G H I J K L M N O P Q R S T U V W X Y Z