Song name
# A B C D E F G H I J K L M N O P Q R S T U V W X Y Z

Cage The Elephant - Back Against The Wall tab

This is how I play the song, it's also my first tab to post here. Hope you like it!

Intro, play it 8 times.
|-------6----------------------------------------------|
|----------6--4----------------------------------------|
|----3--6--------5-------------------------------------|
|-------4--6--4----------------------------------------|
|----4-----4--2--6-------------------------------------|
|----2-----------4-------------------------------------|


Chorus, "You got me where you want me again..."
|------------------------------------------------------|
|------------------------------------------------------|
|------------------------------------------------------|
|-------------4444-6666--------------------------------| 4x
|----66666666-2222-4444--------------------------------|
|----44444444------------------------------------------|

Now repeat the intro again.
|-------6----------------------------------------------|
|----------6--4----------------------------------------|
|----3--6--------5-------------------------------------|
|-------4--6--4----------------------------------------| 4x
|----4-----4--2--6-------------------------------------|
|----2-----------4-------------------------------------|

& then the chorus comes again. Play it 8 times
|------------------------------------------------------|
|------------------------------------------------------|
|------------------------------------------------------|
|-------------4444-6666--------------------------------| 
|----66666666-2222-4444--------------------------------|
|----44444444------------------------------------------|


|-------6----------------------------------------------|
|----------6--4----------------------------------------|
|----3--6--------5-------------------------------------| 6x
|-------4--6--4----------------------------------------|
|----4-----4--2--6-------------------------------------|
|----2-----------4-------------------------------------|


|------------------------------------------------------|
|------------------------------------------------------|
|------------------------------------------------------|
|-------------4444-6666--------------------------------|  8x 
|----66666666-2222-4444--------------------------------|
|----44444444------------------------------------------|

Solo (originally tabed by nfrench7fold):

|-------------------------------------------------|
|-------------------------------------------------|
|-------------------------------------------------|
|-------13~---11~-13~-----------13~---11~-13~-----|
|-11~---------------------11~---------------------|
|-------------------------------------------------|


|-------------------------------------------------|
|-------------------------------------------------|
|--------11--13-13~-----11h13~-13~-13~-13~-13~----|
|-11h13-------------------------------------------|
|-------------------------------------------------|
|-------------------------------------------------|


|---------------11h14--14h16----------------------|
|-12h14--14h16------------------------------------|
|-------------------------------------------------|
|-------------------------------------------------|
|-------------------------------------------------|
|-------------------------------------------------|


|----------------------------------------16-------|
|-14h16-16-16h14-14-14h16-16-16h14-14-14-14^------|
|-------------------------------------------------|
|-------------------------------------------------|
|-------------------------------------------------|
|-------------------------------------------------|


|-----12------12------12------12------------------|
|-12^-----12^-----12^-----12^-----12^-------------|
|-------------------------------------------------|
|-------------------------------------------------|
|-------------------------------------------------|
|-------------------------------------------------|


|-7h9-9-9/11-11-11/14-14-14/16--16^---------------|
|-------------------------------14^---------------|
|-------------------------------------------------|
|-------------------------------------------------|
|-------------------------------------------------|
|-------------------------------------------------|

That's all. Good luck!

Tap to rate this tab
 
# A B C D E F G H I J K L M N O P Q R S T U V W X Y Z