Song name
# A B C D E F G H I J K L M N O P Q R S T U V W X Y Z

Caifanes - Viento tab

BANDA: CAIFANES
CANCION: VIENTO
AUTOR: SAUL HERNANDEZ
TRANSCIPCION: ALAN AVILA

INTRO:
 |PM----------------------------------------------------------------------|
 (Palm Mute)
e|------------------------|------------------------|------------------------|
B|3-3-3-3-3-3-3-3-3-3-3-3-|0-0-0-0-0-0-0-0-0-0-0-0-|1-1-1-1-1-1-1-1-1-1-1-1-|
G|------------------------|------------------------|------------------------|
D|------------------------|------------------------|------------------------|
A|------------------------|------------------------|------------------------|
E|------------------------|------------------------|------------------------|

                          |PM---------------------------------------------|
                          (Palm Mute)
e|--------------15--------|------------------------|------------------------|
B|-1S3------15------12----|12-12-12-12-12-12-12-12-|13-13-13-13-13-13-13-13-|
G|------------------------|------------------------|------------------------|
D|------------------------|------------------------|------------------------|
A|------------------------|------------------------|------------------------|
E|------------------------|------------------------|------------------------|


e|------------------------|------------------------|------------------------|
B|*-----------------------|------------------------|------------------------|
G|------------------------|------------------------|------------------------|
D|-----4-4---------4-4----|-----4-4---------4-4----|-----2-2----------2-2---|
A|*5-5-----5---5-5-----5--|-2-2-----2---2-2-----2---|-0-0------0---0-0----0-|
E|------------------------|------------------------|------------------------|

e|------------------------|
B|------------------------|
G|------------------------|
D|------------------------|
A|-----5-5---------2-2----|
E|-3-3-----3---0-0------0-|

e|------------------------|------------------------|------------------------|
B|------------------------|------------------------|------------------------|
G|------------------------|------------------------|------------------------|
D|-----4-4---------4-4----|-----4-4---------4-4----|-----2-2----------2-2---|
A|5-5-----5---5-5-----5---|-2-2-----2---2-2-----2---|-0-0------0---0-0----0-|
E|------------------------|------------------------|------------------------|

e|------------------------|
B|-----------------------*|
G|------------------------|
D|------------------------|
A|-----5-5---------2-2---*|
E|-3-3-----3---0-0------0-|

Verses

e|------------------------|------------------------|-----------------------|
B|------------------------|------------------------|-----------------------|
G|------------------------|------------------------|-----------------------|
D|-----4-4---------4-4----|-----4-4---------4-4----|-----2-2----------2-2--|
A|-5-5-----5---5-5-----5--|-2-2-----2---2-2-----2--|-0-0------0---0-0----0-|
E|------------------------|------------------------|-----------------------|
   prestame       tu     peine                     y   peiname   el   alma

e|------------------------|
B|------------------------|
G|------------------------|
D|------------------------|
A|-----5-5---------2-2----|
E|-3-3-----3---0-0------0-|

e|------------------------|------------------------|-----------------------|
B|------------------------|------------------------|-----------------------|
G|------------------------|------------------------|-----------------------|
D|-----4-4---------4-4----|-----4-4---------4-4----|-----2-2----------2-2--|
A|5-5-----5---5-5-----5---|-2-2-----2---2-2-----2--|-0-0------0---0-0----0-|
E|------------------------|------------------------|-----------------------|
  desenrredame                                         fuera    de    este

e|------------------------|
B|------------------------|
G|------------------------|
D|------------------------|
A|-----5-5---------2-2----|
E|-3-3-----3---0-0------0-|
   mundo


e|------------------------|------------------------|-----------------------|
B|------------------------|------------------------|-----------------------|
G|------------------------|------------------------|-----------------------|
D|-----4-4---------4-4----|-----4-4---------4-4----|-----2-2----------2-2--|
A|5-5-----5---5-5-----5---|-2-2-----2---2-2-----2--|-0-0------0---0-0----0-|
E|------------------------|------------------------|-----------------------|
  dime     que     no    estoy                      soñadote

e|------------------------|
B|------------------------|
G|------------------------|
D|------------------------|
A|-----5-5---------2-2----|
E|-3-3-----3---0-0------0-|

e|------------------------|------------------------|-----------------------|
B|------------------------|------------------------|-----------------------|
G|------------------------|------------------------|-----------------------|
D|-----4-4---------4-4----|-----4-4---------4-4----|-----2-2----------2-2--|
A|5-5-----5---5-5-----5---|-2-2-----2---2-2-----2--|-0-0------0---0-0----0-|
E|------------------------|------------------------|-----------------------|
    enseñame                                         de    que    estamos

e|------------------------|
B|------------------------|
G|------------------------|
D|------------------------|
A|-----5-5---------2-2----|
E|-3-3-----3---0-0------0-|
   hechos

(ESTA PARTE VA CON TECLADOS PRO YO LO TOCO ASI:)

F#m
que quiero brincar planetas
G
hasta ver uno vacio
F#m
que quiero irme a vivir
G                A
pero que sea con tigo

CORO:

D          Bm       G A
viento  amarranos
D        Bm            G  A
tiempo detente muchs años
D          Bm       G A
viento  amarranos
D        Bm            G  A
tiempo detente muchs años

e|------------------------|------------------------|------------------------|
B|------------------------|------------------------|------------------------|
G|------------------------|------------------------|------------------------|
D|-----4-4---------4-4----|-----4-4---------4-4----|-----2-2----------2-2---|
A|-5-5-----5---5-5-----5--|-2-2-----2---2-2-----2---|-0-0------0---0-0----0-|
E|------------------------|------------------------|------------------------|

e|------------------------|
B|------------------------|
G|------------------------|
D|------------------------|
A|-----5-5---------2-2----|
E|-3-3-----3---0-0------0-|

e|------------------------|------------------------|------------------------|
B|------------------------|------------------------|------------------------|
G|------------------------|------------------------|------------------------|
D|-----4-4---------4-4----|-----4-4---------4-4----|-----2-2----------2-2---|
A|5-5-----5---5-5-----5---|-2-2-----2---2-2-----2---|-0-0------0---0-0----0-|
E|------------------------|------------------------|------------------------|

e|------------------------|
B|------------------------|
G|------------------------|
D|------------------------|
A|-----5-5---------2-2----|
E|-3-3-----3---0-0------0-|

(SE REPITE TODO DESDE "VERSE" PERO CON LA LETRA SIGUIENTE:)

PRESTAME TUPEINE
Y PEINAME EL ALMA

PURIFICAME
NO ME ABANDONES

PRESTAME TU SUEÑO
Y DUERMEME

EMBRUJAME
VOLVAMONOS ETERNOS

F#m
que quiero brincar planetas
G
hasta ver uno vacio
F#m
que quiero irme a vivir
G                A
pero que sea con tigo

CORO:

D          Bm       G A
viento  amarranos
D        Bm            G  A
tiempo detente muchs años
D          Bm       G A
viento  amarranos
D        Bm            G  A
tiempo detente muchs años

D          Bm       G A
viento  amarranos
D        Bm            G  A
tiempo detente muchs años
D          Bm       G A
viento  amarranos
D        Bm            G  A
tiempo detente muchs años

====================================O========================================
ESTA CANON ES MI FAVOITA POR ESO DECIDI TRANSQUIVIRLA !Y QUE VIVA JAGUARES LA
MEJOR BANDA DE MEXICO¡
            -ARRIESGATE Y VUELVE A NACER CAMBIA ESA FOMA DE PENSAR,
                      Y CAMBIA EL CURSO DE LOS HURACANES-
Tap to rate this tab
# A B C D E F G H I J K L M N O P Q R S T U V W X Y Z