Song name
# A B C D E F G H I J K L M N O P Q R S T U V W X Y Z

Caifanes - Ayer Me Dijo Un Ave tab

En el minuto 1:06 de la canción, antecedido por unos armónicos, empieza el solo, el cual 
dividiremos en 2 partes para indentificarlo con facilidad...

                     :::::PRIMERA PARTE:::::
e|-------------------------------------------16-------------|
b|----------------------14-----------------16---16-------16-|
g|----13-16-13-------13----13--------13-16---------13-16----|
d|-14----------14-13----------13-11-------------------------|
a|----------------------------------------------------------|
E|----------------------------------------------------------|


                     :::::SEGUNDA PARTE:::::
e|-----------------------------------------0----------------|
b|----------------------14--------------14---14------14-----|
g|----13-16-13-------13----13--------13-----------13----13--|
d|-14----------14-13----------13-11-------------------------|
a|----------------------------------------------------------|
E|----------------------------------------------------------|

Yo tengo una guitarra tipo Stratocaster y toco esta canción (incluido el solo), usando 
la 3a posición del selector de pastillas y a mi parecer
suena muy bien, espero sea de su agrado, no olviden votar :)
                                                         TAB by: Vizontte
Tap to rate this tab
# A B C D E F G H I J K L M N O P Q R S T U V W X Y Z