Song name
# A B C D E F G H I J K L M N O P Q R S T U V W X Y Z

Caifanes - Nubes tab

Nubes - Caifanes


Intro
|-10------|--10----------|--------------12--------10/12\9-------|
|----12---|-----12-10----|--------10-------10--------------10---|
|---------|-----------12-|-----11----11-------------------------|
|---------|--------------|--------------------------------------|
|---------|--------------|--------------------------------------|
|---------|--------------|--------------------------------------|

Versos
|------------------------------|
|-----7------------------------|
|---7--------6-----------------|
|-9------------7---------------|
|----------------9-------------|
|------------------------------|

Coro
|-----------------------------7-9-10-----------|
|-/7--7----7-5--------------7--------10--10----|
|-/7--7----7-6-6---6------7----------11--11----|
|--------------7---7----9----------------------|
|----------------------------------------------|
|----------------------------------------------|

Solo 1
|----------------------------------------------/12---|
|-----7-10-8--7-------------------10-9--10-9---------|
|---7------------6--8h9-7-------7--------------------|
|-9-----------------------9---9----------------------|
|----------------------------------------------------|
|----------------------------------------------------|


Coro 2
|--------------------------------------------7-9-10-----------|
|----------7-8---/7--7----7-5--------------7--------10--10----|
|-6--6-7-9-------/7--7----7-6-6---6------7----------11--11----|
|-----------------------------7---7----9----------------------|
|-------------------------------------------------------------|
|-------------------------------------------------------------|

Solo 2
|-----------------------------------------------------------------|
|------10---9-7----------------7--------10---9-7-/12-10-9h10------|
|-7--7----7-----9/11-9/11--9-7---9-7--7----7-----------------11---|
|-----------------------------------------------------------------|
|-----------------------------------------------------------------|
|-----------------------------------------------------------------|

|---10---9---7---5---9---7---5-----7-9-10-9-7---------------------|
|-7----7---7---5---5---5---5--/7--------------9/12-12-12-12\10----|
|-----------------------------------------------------------------|
|-----------------------------------------------------------------|
|-----------------------------------------------------------------|
|-----------------------------------------------------------------|

Interludio
|---5---5---5---5---5---5---5---5-|---------------------------------|
|-7---5-------5-------5-------5---|---------------------------------|
|---------6-------7-------6-------|---------------------------------|
|---------------------------------|-------7-----7-------------------|
|---------------------------------|-5-5-5-5-5-5-5-5-------7-----7---|
|---------------------------------|-----------------5-5-5-5-5-5-5-5-|


|-----------------------------------------------------------------|
|-----------------------------------------------------------------|
|-----------------------------------------------------------------|
|-------4-----4---------------------------------------------------|
|-2-2-2-2-2-2-2-2-------4-----4---5-5-5-5-5-5-5-5-------7-----7---|
|-----------------2-2-2-2-2-2-2-2-3-3-3-3-3-3-3-3-5-5-5-5-5-5-5-5-|

|------------------------------|
|--------------------------7-8-|
|-9-9-9-9-9-9-9-9--6-6-7-9-----|
|-9-9-9-9-9-9-9-9--------------|
|-7-7-7-7-7-7-7-7--------------|
|------------------------------|


Solo 3
|----10--10----10----10----12--12----12----12----14-----/17--------|
|-12--------12----12----14--------14----14----15----15--(19)-------|
|------------------------------------------------------------------|
|------------------------------------------------------------------|
|------------------------------------------------------------------|
|------------------------------------------------------------------|

Coro 4
|-10----10----10----10----9----9----9-----------|
|---------------------------10---10------10-----|
|----11----11----11----11-------------11----11--|
|-----------------------------------------------|
|-----------------------------------------------|
|-----------------------------------------------|

Outro
|--------------------------------------------------------------|
|-5-5-3-3-2-2-----5-5-3-3-2-2-----5-5-3-3-2-2------5--5---5-5--|
|-6-6-4-4-2-2-----6-6-4-4-2-2-----6-6-4-4-2-2---2--6--6-6---6--|
|-------------2-4-------------2-4-------------4----------------|
|--------------------------------------------------------------|
|--------------------------------------------------------------|


Por: Diego José González

Snakepit_diego@hotmail.com
Tap to rate this tab
# A B C D E F G H I J K L M N O P Q R S T U V W X Y Z