Song name
# A B C D E F G H I J K L M N O P Q R S T U V W X Y Z

Cains Offering - Into The Blue tab

-----------------------------------------------------------------------------
			     Into The Blue - Cains Offering
-----------------------------------------------------------------------------

Tabbed by:XxGuitarZer0xX

Email:Spongebobs400s@hotmail.com

Tuning:Standard

This is 100% correct note for note.
Tabbed by ear. Good song, never heard it before someone requested it.




e|------------------------------------|
B|----14p12-14p12---------------------|
G|-11-------------11--8-9b11r9--------|
D|-----------------------------9-9/11-|
A|------------------------------------|
E|------------------------------------|

e|--------------------------------------|
B|----14p12-14p12-----------------------|
G|-11-------------11--8/13-15-15-16-18~-|
D|--------------------------------------|
A|--------------------------------------|
E|--------------------------------------|

e|----------------------------------------------------------|
B|-12--16p14-16p14-12~-----12-11----------------------------|
G|---------------------12--------11-8-9~-11-11~-13-13~-12~/-|
D|----------------------------------------------------------|
A|----------------------------------------------------------|
E|----------------------------------------------------------|

Tap to rate this tab
# A B C D E F G H I J K L M N O P Q R S T U V W X Y Z