Song name
# A B C D E F G H I J K L M N O P Q R S T U V W X Y Z

Cains Offering - Into The Blue tab

e|---------------------------------|-----------------------------------|
B|---12p11-12p11-------------------|---12p11-12p11---------------------|
G|--------------11---9/11-9-8------|--------------11--13/15-16-16-18---|
D|-9--------------9----------9-11--|-9--------------13-----------------|
A|---------------------------------|-----------------------------------|
E|---------------------------------|-----------------------------------|

e|---------------------------------|-----------------------------------|
B|-14-16p14-16p14-12---12-11-------|-----------------------------------|
G|------------------11-------11-8--|-9-11-11-13-13--12-----------------|
D|---------------------------------|-----------------------------------|
A|---------------------------------|-----------------------------------|
E|---------------------------------|-----------------------------------|
Tap to rate this tab
 
# A B C D E F G H I J K L M N O P Q R S T U V W X Y Z