Song name
# A B C D E F G H I J K L M N O P Q R S T U V W X Y Z

Cairokee - Sout El Horreya Acoustic chords

Highlighted       Show chord diagrams
Song : Sout El Horreya Acoustic
Band : Cairokee
Tabbed by : Snowflakes91
Tuning : Standard

======================================

[[[[[ Capo : 2nd fret ]]]]]

======================================

[Verse]

Chords used :

      G      Em7    Cadd9
E||---3------3------3-----------||
B||---3------3------3-----------||
G||---0------0------0-----------||
D||---0------2------2-----------||
A||---2------2------3-----------||
E||---3------0------------------||

Intro :

G .. Em7 .. G .. Em7

Verse :

G                            Em7
.. Nzelt w 2olt ana msh rag3 .. w katabt b damy fe kol shar3 ..
.. sama3na elly mknsh same3 .. w etkasrt kol el mawane3 ...

Cadd9                  Em7
.. sela7na kan a7lamna .. w bokra wad7 odamna ..
.. mn zaman bnestanna .. bendawar msh la2yen makanna ..




======================================

[Chorus]

Chords used :

      C      D
E||---0------3-----||
B||---1------2-----||
G||---0------3-----||
D||---2------0-----||
A||---3------------||
E||----------------||

C                         D
.. Fe kol share3 fe blady .. sout el 7orya beynady ..
.. Fe kol share3 fe blady .. sout el 7orya beynady ..


(Note: To get the sound of the chords exactly like how Amir Plays it in the
acoustic live performance I put the link in the comments, use the chord shape I wrote in 
this tab, not the ordinary shapes)
Tap to rate this tab
# A B C D E F G H I J K L M N O P Q R S T U V W X Y Z