Song name
# A B C D E F G H I J K L M N O P Q R S T U V W X Y Z

Cairokee - Ye3ady El Seef tab

-------------------------------------------------------------------------------
                             Ye3ady El Seef - Cairokee (Solo)
-------------------------------------------------------------------------------
Tabbed by: Omar

Tuning: Standard (eBGDAE)

http://www.youtube.com/watch?v=sWe5I5JWU2M (@ 2:29)

e|---------------------------------------------------------------------------|
B|10b12----10b12----12r10b12~~~---/15--14~~~~~~~~~~~~~~~~~~~~~~--------------|
G|---------------------------------------------------------------------------|
D|---------------------------------------------------------------------------|
A|---------------------------------------------------------------------------|
E|---------------------------------------------------------------------------|

e|-----------------------------10b12--12b14--10-12-14-17b19-17--------12--14-|
B|8-10--10b12~~--12r10b12~~--------------------------------------------------|
G|---------------------------------------------------------------------------|
D|---------------------------------------------------------------------------|
A|---------------------------------------------------------------------------|
E|---------------------------------------------------------------------------|

e|12--------------------------------17---------------------------------------|
B|----15-14-12~~~~--12-14-15-17b19-----17b19--19r17--15-14~~--15-12--10------|
G|-------------------------------------------------------------------------12|
D|---------------------------------------------------------------------------|
A|---------------------------------------------------------------------------|
E|---------------------------------------------------------------------------|

e|----------------------------------------------------------------17---------|
B|10--12-12--14-14--15-15--17-14-15-17--17-14-15-17---17b19-17b19----17b19---|
G|---------------------------------------------------------------------------|
D|---------------------------------------------------------------------------|
A|---------------------------------------------------------------------------|
E|---------------------------------------------------------------------------|

e|-------------------------------------------17------------------------------|
B|17b19-17b19-17b19--19r17-15-17-17b19-17b19----17b19-17b19-17b19-17b19-19r17|
G|---------------------------------------------------------------------------|
D|---------------------------------------------------------------------------|
A|---------------------------------------------------------------------------|
E|---------------------------------------------------------------------------|

e|------------------17-------------------------------------------------------|
B|15-17-17b19-17b19----17b19-17b19-17b19-17b19-19r17-15-17-17b19--17--15~~~~~|
G|---------------------------------------------------------------------------|
D|---------------------------------------------------------------------------|
A|---------------------------------------------------------------------------|
E|---------------------------------------------------------------------------|

e|---------------------------------------------------------------------------|
B|\14--14~~~~~~~~~~~~~~~~~~~~~~----------------------------------------------|
G|---------------------------------------------------------------------------|
D|---------------------------------------------------------------------------|
A|---------------------------------------------------------------------------|
E|---------------------------------------------------------------------------|

************************************

| /   slide up
| \   slide down
| h   hammer-on
| p   pull-off
| ~   vibrato
| +   harmonic
| x   Mute note
| b   Bend
| pb  Pre-bend
| br  Bend release
| pbr Pre-bend release
| brb Bend release bend

************************************

-- Any comments or corrections are appreciated. --
Tap to rate this tab
# A B C D E F G H I J K L M N O P Q R S T U V W X Y Z