Song name
# A B C D E F G H I J K L M N O P Q R S T U V W X Y Z

Caitlyn Taylor Love - Shut Up tab

Caitlyn Taylor Love - Shut Up
-----------------------------

Ok when I first heard this song I thought 'Dang, this rocks, I wanna play it!'.
So I tried to figure out the notes and this is the result. It might not be 100%
correct but it is really close and covers the whole song pretty good.
Please let me know if you have any corrections. Oh and this tab by the way 
refers to the version that CTL has on her YouTube page.



### VERSE ### 00:00 ### (2x)
e|-----------------|---------------|-----------------|-------------------|
B|-----------------|---------------|-----------------|-------------------|
G|--5--------------|---------------|--5--------------|-------------------|
D|--5--------------|---------------|--5--------------|-------------------|
A|--3-3-3-3-5-5-3--|--6-8-----6-5--|--3-3-3-3-5-5-3--|-----6-8------5-6--|
E|-----------------|------3-3------|-----------------|---4------3-3------|

e|----------------------------|-------------------|-------------------|
B|----------------------------|-------------------|-------------------|
G|--5-------------------------|--5----------------|-------------------|
D|--5-------3-----------------|--5----------------|-------------------|
A|--3-3-5-6---6-5-3---6----5--|--3-3-3-3-5-5-3-3--|-----6-6------5-6--|
E|------------------4---43----|-------------------|---4------3-3------|


### PRE-CHORUS ### 00:30 ###
e|-------------------|-------------------|-------------------------|------------------|
B|-------------------|-------------------|-------------------------|------------------|
G|--5-5--------------|--5-5--------------|--5-5--------------------|------------------|
D|--5-5-----5---5-6--|--5-5---5-6-8-6-5--|--5-5-------5-6-5-3------|--6-------8-------|
A|--3-3---3---3------|--3-3--------------|--3-3---------------6-5--|--6-(8x)--8-(8x)--|
E|-------------------|-------------------|--------4-4--------------|--4-------6-------|


### CHORUS ### 00:44 ###
e|--------------------------|    |------------------|--------------------------|
B|--------------------------|    |------------------|--------------------------|
G|--5-----------------------| 2x |--8---------------|--5-----------------------|
D|--5-(8x)--6-------5-------|    |--8-(8x)--8-------|--5-(8x)--6-------5-------|
A|--3-------6-(5x)--5-(3x)--|    |--6-------8-(8x)--|--3-------6-(5x)--5-(3x)--| 
E|----------4-------3-------|    |----------6-------|----------4-------3-------|


### INTERLUDE A ### 00:58 ### (2x)
e|-----------------------------------|
B|-----------------------------------|
G|-----------------------------------|
D|------5-5-6-6-5-5------------------|
A|--3-3-----------------6-6-----5-5--|
E|------------------4-4-----3-3------|



### VERSE ### 01:05 ### (1x)

### PRE-CHORUS ### 01:19 ###

### CHORUS ### 01:32 ###



### INTERLUDE B ### 01:46 ###
e|--------------------------------------|
B|--------------------------------------|
G|---------5----5-----------------------|
D|--3----5-5----5-3----3-6------5-------|
A|--3----5-3----3-3----3-6-(8x)-5-(8x)--|
E|--1----3--------1----1-4------3-------|



### INTERLUDE A ### 02:00 ### (3x)



### INTERLUDE C ### 02:10 ###
e|------------------------|
B|------------------------|
G|------------------------|
D|--6------8------9-------|
A|--6-(8x)-8-(4x)-9-(4x)--|
E|--4------6------7-------|



### CHORUS ### 02:14 ### (2x)

### INTERLUDE A ### 02:41 ### (2x)

http://caitlyntaylorlove.com/
Tap to rate this tab
# A B C D E F G H I J K L M N O P Q R S T U V W X Y Z