Song name
# A B C D E F G H I J K L M N O P Q R S T U V W X Y Z

Caitlyn Taylor Love - Broken tab

-------------------------------------------------------------------------------
			     BROKEN - Caitlyn Taylor Love
-------------------------------------------------------------------------------
Tabbed by: some1green
Info: This is totaly 100% correct... not. It is the best i could do so if you
get confused just watch my youtube video: 
http://www.youtube.com/watch?v=zlFXsc70mdw 
I play the song in real time, but if you still have problems contact me
through my youtube account. It is the same name as on this site. If anyone
figures out the solos or corrections please let me know. 

Tuning:Standard

Intro
(no distortion)
e|---------------------------------------------------------------------------|
B|---------------------------------------------------------------------------|
G|-----0-----0-----0-----0-----0-----0-----0-----0---------------------------|
D|---42-2--42-2--42-2--42-2--42-2--42-2--42-2--42-2--------------------------|
A|-------33----44----44----------33----44----44------------------------------|
E|-00----------------------00------------------------------------------------|

Riff 1
(Play and then turn off the volume)     (The bass plays this part)
e|--------------------------|                |---------------|
B|--------------------------|                |---------------|
G|-----0-----0-----0-----0--|(6x)            |---------------|
D|---42-4--42-2--42-25242-2-|                |---------------|
A|-------33----44-----------|                |-0-3-0-3-0-333-|
E|-00-----------------------|                |---------------|

Distortion
          
e|-----|
B|-----|
G|--9--| (Strum and then gently raise the voulme)
D|--9--|
A|--7--|
E|-----|

Chorus
e|---------------------------------------------------------------------------|
B|---------------------------------------------------------------------------|
G|-7------5--------------------7-------9-------------------------------------|
D|-7-(6x)-5-(6x)-7------5------7-(12x)-9-(12x)-------------------------------|
A|-5------3------7-(6x)-5-(6x)-5-------7-------------------------------------|
E|---------------5------3----------------------------------------------------|

e|---------------------------------------------------------------------------|
B|---------------------------------------------------------------------------|
G|-7------5--------------------77777x7x5x5-----------------------------------|
D|-7-(6x)-5-(6x)-7------5------77777x7x5x5-----------------------------------|
A|-5------3------7-(6x)-5-(6x)-55555x5x3x3-----------------------------------|
E|---------------5------3----------------------------------------------------|

Riff 2
e|----------------------|      |--------------------------|
B|----------------------|      |--------------------------|
G|----------------------|      |--------------------------| (4x)
D|--------------xx-5353-|      |--------------------------|
A|--------------xx-5353-|      |--------------------------|
E|-0-3-5--0-3-5-xx-3333-|      |-00000-33333-55555-553322-|

Riff 3
(Turn off sound immediatly after playing)
e|-------------------------------|                |---|
B|-------------------------------|                |---|
G|-9999------7777------9999------|                |-9-| (Strum and then
D|-9999-(4x)-7777-(4x)-9999-(3x)-|                |-9-|  gently raise
A|-7777------5555------7777------|                |-7-|  the voulume)
E|-------------------------------|                |---|

(Play the Chorus)

Riff 4 (3x)
e|-------------------------|-------------------|
B|-------------------------|-------------7-7-7-|
G|-----9-----9-----7-----7-|-5-5-7-7-9-9-7-7-7-| 
D|-----9-----9-----7-----7-|-5-5-7-7-9-9-5-5-5-|
A|-----7-----7-----5-----5-|-3-3-5-5-7-7-------|
E|-8888--8888--6666--6666--|-------------------|

(Play after the third time)
e|-------------------------|
B|-------------------------|
G|-----9-----9-----7-----7-|
D|-----9-----9-----7-----7-|
A|-----7-----7-----5-----5-|
E|-8888--8888--6666--6666--|

No Distortion
(Intro 2x)

(Riff 2)
(Play and then turn off
volume and turn on Distortion)
e|--------------------|            |---|
B|--------------------|            |---|
G|-----0-----0-----0--|            |-9-| (Strum and then gently
D|---42-2--42-2--42-2-|            |-9-|  raise the volume)
A|-------33----44-----|            |-7-|
E|-00-----------------|            |---|

(Play the Chorus)

Riff 5
(Play 3x)
e|-----------------------------|  |--------------|
B|-----------------------------|  |--------------|
G|-5------7--------------------|  |-77777x7-x5x5-|
D|-5-(6x)-7-(6x)-7------3------|  |-77777x7-x5x5-|
A|-3------5------7-(6x)-5-(6x)-|  |-55555x5-x3x3-|
E|---------------5------3------|  |--------------|

Riff 6 (2x)
e|-------------------------|
B|-------------------------|
G|----7----7---------------|
D|-0077-0077-5------3------|
A|-0075-0075-5-(6x)-3-(6x)-|
E|-005--005--3------1------|

| /  slide up
| \  slide down
| h  hammer-on
| p  pull-off
| ~  vibrato
| +  harmonic
| x  Mute note
===============================================================================
Tap to rate this tab
# A B C D E F G H I J K L M N O P Q R S T U V W X Y Z