Song name
# A B C D E F G H I J K L M N O P Q R S T U V W X Y Z

Caitlyn Taylor Love - Stranded tab

Caitlyn Taylor Love - Stranded
==============================



### INTRO ### 00:00 ###          < 1st> < 2nd>
e|------------------------------|------|------|
B|------------------------------|------|------|o
G|------0-0-----0-0-----0-0-----|-0-0--|------|
D|----------5---------------2-2-|------|-2-2--|
A|--2-2-----3-------5-5-----0-0-|------|-0-0--|o
E|--0-0-------------3-3---------|------|------|


### VERSE ### 00:09 ###          < 1st> < 2nd> < 3rd>
e|------------------------------|------|------|------|
B|------------------------------|------|------|------|o
G|------------------------------|------|------|------|
D|----------5-5-x-x---------2-2-|-x-x--|-2-2--|-x-x--|
A|--2-2-x-x-3-3-x-x-5-5-x-x-0-0-|-x-x--|-0-0--|-x-x--|o
E|--0-0-x-x---------3-3-x-x-----|------|------|------|


### PRE-CHORUS ### 00:21 ###
e|----------------|------------------------------------------|
B|----------------|------------------------------------------|
G|----------------|------------------------------------------| palm mute the
D|--5-(hold)--55--|--2-(8x)--5-(8x)--7-(8x)------------------| eighth notes
A|--3---------33--|--0-------3-------5-------2-(4x)--4-(4x)--|
E|----------------|--------------------------0-------2-------|

e|------------------------------|
B|------------------------------|
G|------------------>>>>>>------| increase volume
D|--2-(8x)--5-(8x)--4-(16)------| on last chord
A|--0-------3-------2-----------|
E|------------------------------|


### CHORUS ### 00:43 ###
e|--------------|-------------|--------------|-------------|
B|--------------|-------------|--------------|-------------|
G|--------------|-------------|--------------|-------------|
D|--------------|--7777-------|--------------|--55555-777--|
A|--222-4-5555--|--5555-7777--|--222-4-5555--|--33333-555--|
E|--000-2-3333--|-------5555--|--000-2-3333--|-------------|

e|--------------|-------------|----------------------------|
B|--------------|-------------|----------------------------|
G|--------------|-------------|----------------------------|
D|--------------|--7777-------|--5-(hold)------------------|
A|--222-4-5555--|--5555-7777--|--3-------------------------|
E|--000-2-3333--|-------5555--|----------------------------|



### INTRO ### 01:00 ###

### VERSE ### 01:08 ###

### PRE-CHORUS ### 01:21 ###

### CHORUS ### 01:42 ###



### BRIDGE ### 01:59 ###             < 1st >                         < 2nd >
e|--------------------|---------------------|-------------------------------|
B|--------------------|--------------------o|-------------------------------|
G|--------------------|---------------------|-------------------------------|
D|--7-----45--5-------|--7------5-5---------|--2-(8x)--5-(8x)--5-(hold)-----|
A|--5--77-23--3-22-2--|--5--77--3-3--------o|--0-------3-------3------------|
E|-----55-------00-0--|-----55------0-230---|-------------------------------|


### SOLO ### 02:20 ###
    E     G          D       A           E     G          C       C
e|----------------|-------------------|----------------|---------------------|
B|----------------|-------------------|----------------|---------------------|
G|----------------|-------------------|----------------|------4b-4-----4b-4--|
D|------4-5-4--2--|----0-4-5-4-5p4-2--|------4-5-4--2--|----2--------2-------|
A|--2-2-----------|-------------------|--2-2-----------|---------------------|
E|--0-0-----------|-------------------|--0-0-----------|---------------------|

e|----------------|-------------------|--------------------------------------|
B|----------------|-------------------|--------------------------------------|
G|----------------|-------------------|--------------------------------------|
D|------4-5-4--2--|----0-4-5-4-5p4-2--|--5-(hold)----------------------------|
A|--2-2-----------|-------------------|--3-----------------------------------|
E|--0-0-----------|-------------------|--------------------------------------|



### INTERLUDE ### 02:37 ###
|------------------|--------------------|
|------------------|--------------------|
|------------------|--------------------|
|----------7-------|----------5---------|
|--2---5---5---7---|--2---5---3-(hold)--|
|--0---3-------5---|--0---3-------------|



### CHORUS ### 02:45 ### (first the second part, then the whole thing)



### OUTRO ### 03:11 ###
e|----------------------------------|--------------------------------|
B|----------------------------------|--------------------------------|
G|------0-0-----0-0-----0-0-----0-0-|-----0-0-----0-0----------------| repeat and
D|------------------7-7-----2-2-----|-----------------5-5-------5-7--| fade out
A|--2-2-----5-------5-5-----0-0-----|-2-2-----5-------3-3-3-3-3-3-5--|
E|--0-0-----3-----------------------|-0-0-----3----------------------|
Tap to rate this tab
# A B C D E F G H I J K L M N O P Q R S T U V W X Y Z