Guitaretab - guitar tabs
Song name
# A B C D E F G H I J K L M N O P Q R S T U V W X Y Z
Home / C / Cake / Thrills tab

Cake - Thrills tab

If you have questions, my AIM name is Cameron5.

THRILLS
by
CAKE

Tabbed by: Cameron L. a.k.a. Ska Bassist

Tuning: Standard

|Main Riff Part 1|

E|--7-7-7-7--9--9--9--9--9---7-7-7-7--9---|
B|--8-8-8-8--10-10-10-10-10--8-8-8-8--10--|
G|--7-7-7-7--9--9--9--9--9---7-7-7-7--9---|
D|----------------------------------------|
A|----------------------------------------|
E|----------------------------------------|

[ Tab from: http://www.guitaretab.com/c/cake/100408.html ]
E|--7-7-7-7--9--9--9--9--9---7-7-7-7--9--9---7--|
B|--8-8-8-8--10-10-10-10-10--8-8-8-8--10-10--8--|
G|--7-7-7-7--9--9--9--9--9---7-7-7-7--9--9---7--|
D|----------------------------------------------|
A|----------------------------------------------|
E|----------------------------------------------|

|Main Riff Part 2|

E|----------------------|
B|-------------------5--|
G|------4-7--7-4---4----|
D|----5----------7------|
A|--7-------------------|
E|----------------------|


E|-------------------------|
B|--------/7--7-5---5------|
G|------4---------7---4----|
D|----5--------------------|
A|--7----------------------|
E|-------------------------|

To my suprise, that's it. I'll submit a bass tab soon, I suppose.

 Cameron LeViere 2007, all rights reserved
Related for Thrills tab