Song name
# A B C D E F G H I J K L M N O P Q R S T U V W X Y Z

Cake - War Pigs tab

Help us improve GuitareTab! Take a short survey!
|--------------------------------|
|--------------------------------|
|--------------------------------|
|--------------------------------|
|-1-33-1-33-1-33-1-33---1--------|
|--------------------1-3-3-------|
for verses

Chorus:
|----------------------------------------------------------------|
|----------------------------------------------------------------|
|----------------------------------------------------------------|
|----------------------------------------------------------------|
|-1-33-1-33-1-33-1-33---1--4-4-4-4-4-4-4-4-3-3-3-3----1----------|
|--------------------1-3-3-------------------------1-3-3---------|

Outro:
|----------------------------------------------------------------|
|----------------------------------------------------------------|
|----------------------------------------------------------------|
|----------------------------------------------------------------|
|-1-33-1-33-1-33-1-33---1--1-1-1-1-1-1-1-1-1-1-1-1----1----------|
|--------------------1-3-3-------------------------1-3-3---------|
Related for War Pigs tab