Guitaretab - guitar tabs
Song name
# A B C D E F G H I J K L M N O P Q R S T U V W X Y Z

Cake - When You Sleep tab

If you have questions, my AIM name is Cameron5.
 
WHEN YOU SLEEP
by
CAKE

Tuning: Standard

Tabbed by: Cameron L. a.k.a. Ska Bassist


|Intro/Verse|

Part 1 (Comes in at the beginning):
E|--------------------------|
B|--------------------------|
G|--0~--4~------2~--5~------|
D|----------2~----------4~--|
A|--------------------------|
E|--------------------------|

Part 2 (Come in right after part 1, all palm muted):
E|---------------------------|
B|---------------------------|
G|---------------------------|
D|---------------------------|
A|-----0-2-----3----------5--|
E|---3------0----3-0--2-3----|

Part 3 (In the background at 0:09, all plam muted):
E|-------------------------|
B|--2-3---3-2---2-3---3-4--|
G|-------------------------|
D|-------------------------|
A|-------------------------|
E|-------------------------|

|"Do they play guitar?"|

E|-------------------------------------|
B|--5/7--5/7--5--3--5/7--5/7--8-12--7--|
G|--5/7--5/7--5--4--5/7--5/7--9-12--7--|
D|-------------------------------------|
A|-------------------------------------|
E|-------------------------------------|

E|--------------------|
B|--8-10-8-7~----777--|
G|--9-11-9-7~----777--|
D|--------------------|
A|--------------------|
E|--------------------|

|"Zeus was a womanizer..."|

Part 1:
E|----------------------------|
B|--5--5~---------5~--7~------|
G|--5--5~--4--4~--5~--7~--4~--|
D|--5--5~--5--5~--5~--7~--5~--|
A|---------5--5~----------5~--|
E|----------------------------|

[ Tab from: http://www.guitaretab.com/c/cake/161496.html ]
E|----------------------------------|
B|--5--5~---7--7~----8---8~---8/10--|
G|--5--5~---7--7~----9---9~---9/11--|
D|--5--5~---7--7~---10--10~--10/12--|
A|----------------------------------|
E|----------------------------------|

Part 2:
E|--------------------------------------|
B|--------------------------------------|
G|--------------------------------------|
D|--------------------------------------|
A|--3~--3~--------------2-3~--5~--------|
E|----------3~--3~--3-5----------3--3~--|


E|-------------------------------|
B|-------------------------------|
G|-------------------------------|
D|-------------------------------|
A|--3--3~--5--5~--7--7~--7/9--9--|
E|-------------------------------|

|"When you sleeeeep...." (2:02)|
Note: I don't know if this is a slide or bends,
but if you're doing bends insted of slides, just
use the first note and bend it to the second note.

E|--------------------------------------------------------------|
B|--------------------------------------------------------------|
G|--------2/5\2---5/7\4---7/9\7---9/12\9---13/17\14---16/19\16--|
D|--2/5\2-------------------------------------------------------|
A|--------------------------------------------------------------|
E|--------------------------------------------------------------|

|"Oh-oh-oh" (2:17)|
Same thing goes here, you can bend the 15 back and
forth or you can just slide it. Play this along with
part 1 of the intro/verse.

E|-------------------------------|
B|--15/17\15/17\15/17\15\13\12~--|
G|-------------------------------|
D|-------------------------------|
A|-------------------------------|
E|-------------------------------|

Also in the background (very faint):

E|--22-19---------|
B|--------20------|
G|-----------19~--|
D|----------------|
A|----------------|
E|----------------|


 Cameron LeViere 2007, all rights reserved
Related for When You Sleep tab