Song name
# A B C D E F G H I J K L M N O P Q R S T U V W X Y Z

Cake - Commissioning A Symphony In C tab

Commissioning a symphony SOLO
CAKE
I saw some other guy's tabs for this song and they were messed up.
I prefer not jumping up and down the from fret 12 to fret 6 and stuff,
so i took what i liked and made it easier. Enjoy! ::lord Havok::


e:---------------------------------------|
b:--10-----------------------------------|
g:----10---------9-----------------------|
d:------12p11h12---12--------------------|
a:--------------------11/12---12-10------|
E:----------------------------------12---|

e:-----------------------------------------|
b:--10-----------------10----------12------|
g:----10---------9h10------12--------------|
d:------12p11h12----------------12---------|
a:-----------------------------------------|
E:----------------------------------=------|

e:---------------------------------------|
b:---------------------------------------|
g:---------------------------10-12-10----|
d:------------10-12-10-------------------|
a:--13-12-13-----------13-12-12-13-12----|
E:---------------------------------=-----|

e:--------------------~-10--------13---12---10----|
b:-------------------10----13--10---10---10-------|
g:-----------9-10-12------------------------------|
d:--12-10-12--------------------------------------|
a:------------------------------------------------|
E:------------------------------------------------|


Second Time Around

End of solo
e:-------------------------------~-------------10-----------|
b:------------------------------------------10-----13-------|
g:------------9-10-9----------------9-10-12-----------------|
d:---12-10-12--------12-11-12-11-12-------------------------|
a:----------------------------------------------------------|
E:----------------------------------------------------------|
Tap to rate this tab
 
# A B C D E F G H I J K L M N O P Q R S T U V W X Y Z