Song name
# A B C D E F G H I J K L M N O P Q R S T U V W X Y Z

Cake - Alpha Beta Parking Lot tab

Not a hard solo, and there is another tab up on the site for the chords. here we go...

-----------------------------------------------------------------------------
		                      Alpha Beta Parking Lot (Solo) - CAKE
-----------------------------------------------------------------------------
Tabbed by: Scott Elwood
Email: Elwood32@live.com

Tuning: Standard (EADGBe)

e|--------------------------------------------------------------------------|
B|--------------------------------------------------------------------------|
G|--------------------------------------------------------------------------|
D|-------------------------5--5--4---2-----0--2-----------------------------|
A|--0--2--5--5--5--5--5-----------------5--------5--2-----------------------|
E|--------------------------------------------------------------------------|

e|--------------------------------------------------------------------------|
B|--------------------------------------------------------------------------|
G|--------------------------------------------------------------------------|
D|--------------------------------------------------------------------------|
A|--5--5---5--5--3-------5--5----5--5--2------------------------------------|
E|--------------------------------------------------------------------------|


e|--------------------------------------------------------------------------|
B|--------------------------------------------------------------------------|
G|--------------------------------------------------------------------------|
D|-------------------------5--5--4---2-----0--2-----------------------------|
A|--------5--5--5--5--5-----------------5--------5--2-----------------------|
E|--------------------------------------------------------------------------|

e|--------------------------------------------------------------------------|
B|--------------------------------------------------------------------------|
G|--------------------------------------------------------------------------|
D|--------------------------------------------------------------------------|
A|--------5--5--5--5--5----5-----------2p0----------------------------------|
E|------------------------------------------3-------------------------------|


************************************

| /   slide up
| \   slide down
| h   hammer-on
| p   pull-off
| ~   vibrato
| +   harmonic
| x   Mute note
| b   Bend
| pb  Pre-bend
| br  Bend release
| pbr Pre-bend release
| brb Bend release bend

************************************
Tap to rate this tab
# A B C D E F G H I J K L M N O P Q R S T U V W X Y Z