Cake - Subtract One Love Multiply The Heartache tab

-------------------------------------------------------------------------------
		 CAKE - Subtract One Love (Multiply the Heartache)
-------------------------------------------------------------------------------
Tabbed by: Scott Elwood
Email: Elwood32@live.com

Notes: This isn't a hard song to play, however its tricky at some points. It is all
off of the same riff throughout the song, but Xan adds different flare to each time he goes
I tried to match exactly what he does, and this should definitely suffice anyones need 
this tab, but there are no videos of it online and therefore it will not be 100%.

Please leave any error notes in the comments and I will correct them asap

Tuning: Standard (EADGBe)

e|-------------------|
B|-------------------|
G|-------------------|
D|-------------------|   x6
A|-----------2--4--2-|
E|--0--2--4----------|

e|----------------------------------------|
B|----------------------------------------|
G|----------------------------------------|
D|-----------2--4--2-----------2--2h4p2---|
A|--0--2--4-----------0--2--4-------------|
E|----------------------------------------|

e|------------------------------------------------------------------------|
B|------------------------------------------------------------------------|
G|-------------------------------4--------------4---4---------------------|
D|------------4--6--4------------4h6p4----------4---4---------------------|
A|--2--4-/-6-----------2--4-/-6---------2--4-/-6----------------2--4--2---|
E|-----------------------------------------------------0--2--4------------|

e|-------------------|
B|-------------------|
G|-------------------|
D|-------------------|   x2
A|-----------2--4--2-|
E|--0--2--4----------|

e|----------------------------------------|
B|----------------------------------------|
G|-----------2--2---2---------------------|
D|-----------2--2p4h2-----------2--4--2---|
A|--0--2--4------------0--2--4------------|
E|----------------------------------------|

e|--------------------------------------------------------|
B|--------------------------------------------------------|
G|-------------------------------4-4----------------------|
D|------------4--6--4------------4-4h6----------4--6--4---|
A|--2--4-/-6-----------2--4-/-6---------2--4-/-6----------|
E|--------------------------------------------------------|

e|-------------------------------|
B|-------------------------------|
G|-------------------------------|
D|-------------------------------|
A|-------------2--4--2-----------|
E|--0----2--4-----------2br--0---|

e|----------------------------------------|
B|----------------------------------------|
G|-----------2----------------------------|
D|-----------2--2p4-2-----------2--4--2---|
A|--0--2--4------------0--2--4------------|
E|----------------------------------------|

e|-------------------|
B|-------------------|
G|-------------------|
D|-------------------|   x2
A|-----------2--4--2-|
E|--0--2--4----------|

e|-----------------------------------|
B|-----------------------------------|
G|------------4----------------------|
D|------------4--6p4------------4-4--|
A|--2--4-/-6-----------2--4-/-6------|
E|-----------------------------------|

e|---------------------------------|
B|---------------------------------|
G|---------------------------------|
D|---------------------------------|
A|-------------2--4--2-------------|
E|--0----2--4-----------0h2br--0---|

e|----------------------------------------|
B|----------------------------------------|
G|-----------2----------------------------|
D|-----------2------------------2--4--2---|
A|--0--2--4------------0--2--4------------|
E|----------------------------------------|

e|---------------------------------------------|
B|---------------------------------------------|
G|---------------------------------------------|
D|---------------------------------------------|
A|-------------2--4--2------------------2--4---|
E|--0----2--4-----------0h2br--0--2--4---------|

e|------------------------------------------|
B|------------------------------------------|
G|------------4-4---4-----------------------|
D|------------4-4h6p4-------------4--6--4---|
A|--2--4-/-6------------2--4-/-6------------|
E|------------------------------------------|

e|----------------------------|
B|----------------------------|
G|----------------------------|
D|----------------------------|
A|-------------2--4-----------|
E|--0----2--4--------2br--0---|

//*** SOLO ***//
e|------------------------------------------------------|
B|------------------------------------------------------|
G|------------------------------------------------------|
D|------------------------------------------------------|
A|----------------------2-0-2---4-2-0-----0---2-0-2h4---|
E|--2h4---2br--0--2h4-------------------4---------------|

e|------------------------------------------------------|
B|------------------------------------------------------|
G|------------------------------------------------------|
D|------------------------------------------------------|
A|--2--2-2-2--2-4p2--2-2---2--4-2-----------------------|
E|---------------------------------0-2h4--2br-0-2h4-----|

e|------------------------------------------------------|
B|------------------------------------------------------|
G|------------------------------------------------------|
D|------------------------------------------------------|
A|--------------------------2-0-2-0-2-4-2-------2-------|
E|--0-0-0-0-0-2-4-2-4-2-4-5---------------4-0-4---------|

e|------------------------------------------------------|
B|------------------------------------------------------|
G|------------------------------------------------------|
D|------------------------0-2-0-2-0-2-4-2-------2-------|
A|------------2-4-2-4-2-4-----------------4-0-4---------|
E|--5-4-5-4-5-------------------------------------------|

e|------------------------------------------------------|
B|------------------------------------------------------|
G|------------------------------------------------------|
D|------------------------2-4-2-4-2-4-6-4-------4-------|
A|--2-0-2-0-2-4/6-4-6-4-6-----------------6-2-6---------|
E|------------------------------------------------------|

e|------------------------------------------------------|
B|------------------------------------------------------|
G|--1-----1---------------------------------------------|
D|----2-----2-------------------------------------------|
A|------2-----2--2/4--4p2p0-----------------------------|
E|--------------------------2br--0----------------------|

e|----------------------------------------|
B|----------------------------------------|
G|-----------2----------------------------|
D|-----------2--2h4p2-----------2--4--2---|
A|--0--2--4------------0--2--4------------|
E|----------------------------------------|

e|---------------------------------|
B|---------------------------------|
G|---------------------------------|
D|---------------------------------|
A|-------------2--4--2-------------|
E|--0----2--4-----------0h2br--0---|

** I will add the rest at a later date, but the last 30 seconds are the same as the
and I assume all of you can figure it out from here **

************************************

| /   slide up
| \   slide down
| h   hammer-on
| p   pull-off
| ~   vibrato
| +   harmonic
| x   Mute note
| b   Bend
| pb  Pre-bend
| br  Bend release
| pbr Pre-bend release
| brb Bend release bend

************************************
Tap to rate this tab
 
# A B C D E F G H I J K L M N O P Q R S T U V W X Y Z