Song name
# A B C D E F G H I J K L M N O P Q R S T U V W X Y Z

Cake - Sick Of You tab

-----------------------------------------------------------------------------
			                             SICK OF YOU - Cake
-----------------------------------------------------------------------------
Tabbed by: LoudLove5150
Email: loudlove5150@gmail.com

Tuning: E Standard


h - hammer on
p  pull off


RHYTHM (all upstrokes, riff played throughout the whole song)
e|------------------|
B|-------3----------|
G|-1--2--2--1--2p1--|
D|-2--2--0--2--2----|
A|-2--0-----2--2----|
E|-0--------0--0----|

LEAD
INTRO/VERSE - Starts on the second measure.
e|---------------------------------------------------------|
B|---------------------------------------------------------|
G|---------------------------------------------------------|
D|---------------------------------------------------------|
A|-----------7-5----------5-4------------------------------|
E|-0-4-5-6-7------4-5-6-7------4-6-6-7-9-7--0-4-5-6-7-10p0-|

CHORUS
LEAD
e|----------------------------------------------|
B|----------------------------------------------|
G|----------------------------------------------|
D|----------------------------------------------|
A|---------------------5----------------------7-|
E|-0-0-4-0-5-0-6p0-6h7----0-0-4-0-5-0-6p0-6h7---|

e|----------------------------------------------|
B|----------------------------------------------|
G|----------------------------------------------|
D|----------------------------------------------|
A|---------------------5------------------------|
E|-0-0-4-0-5-0-6p0-6h7----0-0-4-0-5-0-6p0-6p5p3-|
Tap to rate this tab
 
# A B C D E F G H I J K L M N O P Q R S T U V W X Y Z