Cake - Comfort Eagle tab

-------------------------------------------------------------------------------
			     COMFORT EAGLE - Cake
-------------------------------------------------------------------------------
Tabbed by:LoudLove5150
Email:loudlove5150@gmail.com

Tuning: E Standard

Unless you want to cover other instruments with the guitar (keyboards and such), 
the entirety of this song is played on the on low E and A strings.

Listen to the song for the exact timing.

INTRO/VERSE
e|-----------------------------|
B|-----------------------------|
G|-----------------------------| x11
D|-----------------------------|
A|-----------------------------|
E|-0-000-0-1-0-0-000-0-1-4-1-0-|

VERSE BREAK
e|-----------------|
B|-----------------|
G|-----------------| x1
D|-----------------|
A|-----------------|
E|-0-000-0-1-0-0-0-|

INTRO/VERSE x5
VERSE BREAK x1

CHORUS A
e|---------------------------|
B|---------------------------|
G|---------------------------| x2
D|---------------------------|
A|---------------------------|
E|-0-1-4-5-555-5-4-1-4-1-0-0-|

CHORUS B
e|-------------------------------------------------------|
B|-------------------------------------------------------|
G|-------------------------------------------------------| x1
D|-------------------------------------------------------|
A|-------------------------------------------------------|
E|-0-1-4-5-555-5-4-1-4-1-4-444-4-1-4-1-4-1-111-111-111-1-|

INTRO/VERSE x5
VERSE BREAK x1
INTRO VERSE x5
VERSE BREAK x1
CHORUS A x2

CHORUS B
e|-----------------------------------------|
B|-----------------------------------------|
G|-----------------------------------------|
D|-----------------------------------------|
A|-----------------------------------------|
E|-0-1-4-5-555-5-4-1-4-1-4-444-4-1-4-1-4-1-|
 |
e|---------------------------------------------|
B|---------------------------------------------|
G|---------------------------------------------|
D|---------------------------------------------|
A|---------------------------------------------|
E|-111-111-111-111-111-111-111-111-111-111-1-1-|



OUTRO
e|-----------------------------------------|
B|-----------------------------------------|
G|-----------------------------------------| x4
D|-----------------------------------------|
A|---7/8\7---5/7\5-5-3---2/3\2---0h2p0-0---|
E|-0-------0-----------0-------0---------4-|

Repeat INTRO/VERSE until songs fades out

************************************

| /   slide up
| \   slide down
| h   hammer-on
| p   pull-off

************************************

Tap to rate this tab
 
# A B C D E F G H I J K L M N O P Q R S T U V W X Y Z