Song name
# A B C D E F G H I J K L M N O P Q R S T U V W X Y Z

Cake - Comfort Eagle tab

Tabbed by Nfsjunkie91
Nfsjunkie91@yahoo.com

It's fairly easy, here's the verse guitar part:

e|---------------------------------|
B|---------------------------------|
G|---------------------------------|
D|---------------------------------|
A|---------------------------------|
E|0-000-0-1p0---0---000-0-1-4-1-0--|
  1   2   3   4   5   6   7   8   1

*before the choruses just strum/gallop the E.

Chorus Part:

e|-------------------------------------|
B|-------------------------------------|
G|-------------------------------------|
D|-------------------------------------|
A|-------------------------------------|
E|0-1-4-5-555-554-1-4-1-0-0-------0-1-4|
   (8)  1   2   3   4   5   6   7   8  

Repeat this part 3x, then

e|------------------------------------------|
B|------------------------------------------|
G|------------------------------------------|
D|------------------------------------------|
A|------------------------------------------|
E|0-1-4-5-555-554-1-4-1-4-444-441-4-1-4-1(hit 1 until the end of the chorus)
    8   1   2   3   4   5   6   7   8   1

Bridge Part (Towards end of song, the part that sounds like the staccato synth bit)

e|----------------------------------------------------------------|
B|----------------------------------------------------------------|
G|----------------------------------------------------------------|
D|----2h3-2-------0h2-0---0---------------------------------------|
A|----------------------------3-------2h3-2-------0h2-0---0-------|
E|0-----------0-------------------0-----------0---------------4---|
  1   2   3   4   5   6   7   8   1   2   3   4   5   6   7   8   1

Synth Part (the high pitched one throughout the verses):

e|16----------12--10----------12-17-16----------12--10----------9--|
B|-----------------------------------------------------------------|
G|-----------------------------------------------------------------|
D|-----------------------------------------------------------------|
A|-----------------------------------------------------------------|
E|-----------------------------------------------------------------|
  1 2 3 4 5 6 7 8 1 2 3 4 5 6 7  8  1 2 3 4 5 6 7 8 1 2 3 4 5 6 7 8

e|7-----------5---4------------------------------|
B|-----------------------------------------------|
G|-----------------------------------------------|
D|-----------------------------------------------|
A|-----------------------------------------------|
E|-----------------------------------------------|
  1 2 3 4 5 6 7 8 1 2 3 4 5 6 7 8 1 2 3 4 5 6 7 8

Staccato Synth Part (like the bridge part on guitar,
and yes, they are double digit numbers)

e|0---121312--0---101210--10--8---0---7-8-7---0---5-7-5---5---4---|
B|----------------------------------------------------------------|
G|----------------------------------------------------------------|
D|----------------------------------------------------------------|
A|----------------------------------------------------------------|
E|----------------------------------------------------------------|
  1   2   3   4   5   6   7   8   1   2   3   4   5   6   7   8   1

Horn/synth bit at the end:

e|------19----------19------------------1917--16------------------|
B|----17--17------17--17--------------17----------17--15--17------|
G|----------------------------------------------------------------|
D|----------------------------------------------------------------|
A|----------------------------------------------------------------|
E|----------------------------------------------------------------|
  1   2   3   4   5   6   7   8   1   2   3   4   5   6   7   8   1


SOME BASIC STRUCTURE I GUESS:

Verse
Chorus
Verse
Chorus (play F until the silence)
Bridge 4 times
Verse (until end)

It's really pretty easy to put together. Thanks for reading!
Tap to rate this tab
 
# A B C D E F G H I J K L M N O P Q R S T U V W X Y Z