Song name
# A B C D E F G H I J K L M N O P Q R S T U V W X Y Z

Cake - Mexico tab

Intro/verse


--0--0--0----0-----0----0-0---------1-----1-| Repeat the alternating F and C
--1--1--1----1-----1----1-1---------1-----1-| Bass notes + chords one time
--0--0--0----0-----2----2-2---------2-----2-|
--2--2--2----2-----2----2-2---------3-----3-|
--3--3--3--2---3-0-0----0-0--0------3--3--3-|
----------------------3---------1---1-----1-|


Chorus
----1----1----3----3--0--0--0--0---------1-----1----3-----3-|  After the G chord
----1----1----3----3--1--1--1--1---------1-----1----3-----3-|  the second time
----2----2----0----0--0--0--0--0---------2-----2----0-----0-|  around in the
----2----2----0----0--2--2--2--2---------2-----2----0-----0-|  chorus simply
----3--3-3----2--2-2--3--3--3--3---------3--3--3----2--2--2-|  play the intro
--1-1----1--3-3----3---------------0--1--1-----1--3-3-----3-|  /verse again
Tap to rate this tab
 
# A B C D E F G H I J K L M N O P Q R S T U V W X Y Z