Cake - Shadow Stabbing tab

SHADOW STABBING - CAKE

Tabbed by: Bokerfork
Email: heerman913@yahoo.com

Tuning: Standard (EADGBe)

                                                          x4
e||------------|---------------|-----------|--------------||
B||o-----------|---------------|-----------|-------------o||
G||----9xxxxx9-|---------------|---9xxxxx9-|--------------||
D||----9xxxxx9-|---9---9---9-7-|---9xxxxx9-|---9---9---9--||
A||o-7--xxxxx7-|---9---9---9-7-|-7--xxxxx7-|---9---9---9-o||
E||------------|-7---7---7---5-|-----------|-7---7---7----||

e||---------|---------------||----------|--------------||
B||---------|---------------||o---------|-------------o||
G||---------|---------------||----------|--------------||
D||---14-/9-|-6--9-7-6-7-6--||----14-/9-|-6-9-7---6-7--||
A||---12-/7-|-7-------------||o---12-/7-|-7-----7---7-o||
E||-0-------|---------------||--0-------|--------------||

e||---------|---------|---------|---------|---------|---------|----------||
B||---------|---------|---------|---------|---------|---------|----------||
G||---------|---------|---------|---------|---------|---------|----------||
D||-7-7-7-7-|-7-7-7-7-|-7-7-7-7-|-7-7-7-7-|-7-7-7-7-|-7-7-7-7-|-9-9-9-9--||
A||-7-7-7-7-|-7-7-7-7-|-7-7-7-7-|-7-7-7-7-|-7-7-7-7-|-7-7-7-7-|-9-9-9-9--||
E||-5-5-5-5-|-5-5-5-5-|-5-5-5-5-|-5-5-5-5-|-5-5-5-5-|-5-5-5-5-|-7-7-7-7--||

e||---------------|---------------|---------------|---------------||
B||---------------|---------------|---------------|---------------||
G||---------------|---------------|---------------|---------------||
D||-2-2-2-2-------|-9-9-9-9-------|-7-7-7-7-------|-7-7-7-7-------||
A||-2-2-2-2-------|-9-9-9-9-------|-7-7-7-7-------|-7-7-7-7-------||
E||-0-0-0-0-------|-7-7-7-7-------|-5-5-5-5-------|-5-5-5-5-------||

e||---------------|---------------|---------------|---------------|---------------||
B||---------------|---------------|---------------|---------------|---------------||
G||---------------|---------------|---------------|---------------|---------------||
D||-2-2-2-2-------|-9-9-9-9-------|-7-7-7-7-------|-7-7-7-7-------|-7-7-7-7-------||
A||-2-2-2-2-------|-9-9-9-9-------|-7-7-7-7-------|-7-7-7-7-------|-5-5-5-5-------||
E||-0-0-0-0-------|-7-7-7-7-------|-5-5-5-5-------|-5-5-5-5-------|-5-5-5-5-------||
                                                       x3
e||---------|---------------||----------|--------------||
B||---------|---------------||o---------|-------------o||
G||---------|---------------||----------|--------------||
D||---14-/9-|-6--9-7-6-7-6--||----14-/9-|-6-9-7---6-7--||
A||---12-/7-|-7-------------||o---12-/7-|-7-----7---7-o||
E||-0-------|---------------||--0-------|--------------||

e||--4--------5-4-----|---------------11-12-|-4--------5-4-----|----------------||
B||o---7-5--------5---|-12-10-9-10-12-------|---7-5--------5---|-7-5-4-5-4-----o||
G||--------4--------4-|---------------------|-------4--------4-|------------6-4-||
D||-------------------|---------------------|------------------|----------------||
A||o------------------|---------------------|------------------|---------------o||
E||-------------------|---------------------|------------------|----------------||
					                 
e||------------|---------------|-----------|--------------||
B||------------|---------------|-----------|--------------||
G||----9xxxxx9-|---------------|---9xxxxx9-|--------------||
D||----9xxxxx9-|---9---9---9-7-|---9xxxxx9-|---9---9---9--||
A||--7--xxxxx7-|---9---9---9-7-|-7--xxxxx7-|---9---9---9--||
E||------------|-7---7---7---5-|-----------|-7---7---7----||

e||---------|---------|---------|---------|---------|---------|----------||
B||---------|---------|---------|---------|---------|---------|----------||
G||---------|---------|---------|---------|---------|---------|----------||
D||-7-7-7-7-|-7-7-7-7-|-7-7-7-7-|-7-7-7-7-|-7-7-7-7-|-7-7-7-7-|-9-9-9-9--||
A||-7-7-7-7-|-7-7-7-7-|-7-7-7-7-|-7-7-7-7-|-7-7-7-7-|-7-7-7-7-|-9-9-9-9--||
E||-5-5-5-5-|-5-5-5-5-|-5-5-5-5-|-5-5-5-5-|-5-5-5-5-|-5-5-5-5-|-7-7-7-7--||

e||---------------|---------------|---------------|---------------||
B||---------------|---------------|---------------|---------------||
G||---------------|---------------|---------------|---------------||
D||-2-2-2-2-------|-9-9-9-9-------|-7-7-7-7-------|-7-7-7-7-------||
A||-2-2-2-2-------|-9-9-9-9-------|-7-7-7-7-------|-7-7-7-7-------||
E||-0-0-0-0-------|-7-7-7-7-------|-5-5-5-5-------|-5-5-5-5-------||

e||---------------|---------------|---------------|---------------|---------------||
B||---------------|---------------|---------------|---------------|---------------||
G||---------------|---------------|---------------|---------------|---------------||
D||-2-2-2-2-------|-9-9-9-9-------|-7-7-7-7-------|-7-7-7-7-------|-7-7-7-7-------||
A||-2-2-2-2-------|-9-9-9-9-------|-7-7-7-7-------|-7-7-7-7-------|-5-5-5-5-------||
E||-0-0-0-0-------|-7-7-7-7-------|-5-5-5-5-------|-5-5-5-5-------|-5-5-5-5-------||
                                                       x3
e||---------|---------------||----------|--------------||
B||---------|---------------||o---------|-------------o||
G||---------|---------------||----------|--------------||
D||---14-/9-|-6--9-7-6-7-6--||----14-/9-|-6-9-7---6-7--||
A||---12-/7-|-7-------------||o---12-/7-|-7-----7---7-o||
E||-0-------|---------------||--0-------|--------------||

e||------------|---------------|-----------|--------------||
B||o-----------|---------------|-----------|-------------o||
G||----9xxxxx9-|---------------|---9xxxxx9-|--------------||
D||----9xxxxx9-|---9---9---9-7-|---9xxxxx9-|---9---9---9--||
A||o-7--xxxxx7-|---9---9---9-7-|-7--xxxxx7-|---9---9---9-o||
E||------------|-7---7---7---5-|-----------|-7---7---7----||

e||---------|---------------||----------|--------------||
B||---------|---------------||o---------|-------------o||
G||---------|---------------||----------|--------------||
D||---14-/9-|-6--9-7-6-7-6--||----14-/9-|-6-9-7---6-7--||
A||---12-/7-|-7-------------||o---12-/7-|-7-----7---7-o||
E||-0-------|---------------||--0-------|--------------||

************************************

| /   slide up
| \   slide down
| h   hammer-on
| p   pull-off
| ~   vibrato
| +   harmonic
| x   Mute note
| b   Bend
| pb  Pre-bend
| br  Bend release
| pbr Pre-bend release
| brb Bend release bend

************************************
Tap to rate this tab
 
# A B C D E F G H I J K L M N O P Q R S T U V W X Y Z