Song name
# A B C D E F G H I J K L M N O P Q R S T U V W X Y Z

Cake - Rock N Roll Lifestyle tab

Well, it seems that all tabs were a tad incorrect, so lets see if this one is any better.

MAIN RIFF

#= Rake
*= Mute strings while playing
h= hammer-on
p= pull-off
/= slide
b= bend

e|------------------------------------------|
B|------------------------------------------|
G|---------#--2*-2*--#--4--4----------2--4--|
D|--2*-2*--#--2*-2*--#--4--4------2*--2--4--|
A|--2*-2*--#--0*-0*--#--2--0------2*--0--2--|
E|--0*-0*--#---------#--------3-2-0*--------|

Chorus

e--------------------|---------------------|-----------------|------------------|
B--------------------|---------------------|---0-----0-------|------------------|
D--------------------|---------------------|-----3/4---------|--3/4-3/4-3/4-3-3-|
G--------------------|----------2----------|-----------------|------------------|
A----------2---------|--0-2h3h4----4p3p2-0-|-2---------2p1p0-|------------------|
E--0-2h3h4---4p3p2-0-|---------------------|-----------------|------------------|

The solo bit is kinda hard to tab, so here I leave it, its kinda good.

Well, enjoy
-Damien

Tap to rate this tab
# A B C D E F G H I J K L M N O P Q R S T U V W X Y Z