Song name
# A B C D E F G H I J K L M N O P Q R S T U V W X Y Z

Cake - Arco Arena tab

-------------------------------------------------------------------------------
			    Arco Arena - Cake
-------------------------------------------------------------------------------
Tabbed by: Andres "silvadolla" Ali
Email: andres.ali@gmail.com

Tuning: EADGBE (STANDARD)

This is a short, neat tune. Everything sounds accurate. There's a rhythm part that goes 
it, but I didnt tab that part out.

e|---------------------------------------------------------------------------|
B|---------------------------------------------------------------------------|
G|---------------------------------------------------------------------------|
D|--7---7----7-5-------------------------------------------------------------|
A|----7--7-8-----8-7---------------------------------------------------------|
E|---------------------------------------------------------------------------|x3

e|---------------------------------------------------------------------------|
B|---------------------------------------------------------------------------|
G|---------------------------------------------------------------------------|
D|---------------------------------------------------------------------------|
A|-8-7-5---------------------------------------------------------------------|
E|---------------------------------------------------------------------------|

e|---------------------------------------------------------------------------|
B|---------------------------------------------------------------------------|
G|---------------------------------------------------------------------------|
D|-0-------------------------------------------------------------------------|
A|----3-5-2-3-0---3-5-2-3--0-------------------------------------------------|
E|---------------------------------------------------------------------------|

e|---------------------------------------------------------------------------|
B|---------------------------------------------------------------------------|
G|---------------------------------------------------------------------------|
D|9h10-7---7-----------------10---7---7--------------------------------------|
A|-------7---7--8--12-10-8----------7---7--8--12-10--------------------------|
E|---------------------------------------------------------------------------|

e|---------------------------------------------------------------------------|
B|---------------------------------------------------------------------------|
G|---------------------------------------------------------------------------|
D|-9h10-7----7---------------------------------------------------------------|
A|--------7---7-8-12-10-8---5-7-3-0-2-3-0------------------------------------|
E|---------------------------------------------------------------------------|

e|---------------------------------------------------------------------------|
B|---------------------------------------------------------------------------|
G|---------------------------------------------------------------------------|
D|9h10-7---7-----------------10---7---7--------------------------------------|
A|-------7---7--8--12-10-8----------7---7--8--12-10--------------------------|
E|---------------------------------------------------------------------------|

e|---------------------------------------------------------------------------|
B|---------------------------------------------------------------------------|
G|---------------------------------------------------------------------------|
D|-9h10-7----7---------------------------------------------------------------|
A|--------7---7-8-12-10-8---5-7-3-0-2-3-0------------------------------------|
E|---------------------------------------------------------------------------|


e|---------------------------------------------------------------------------|
B|---------------------------------------------------------------------------|
G|---------------------------------------------------------------------------|
D|--7---7----7-5-------------------------------------------------------------|
A|----7--7-8-----8-7---------------------------------------------------------|
E|---------------------------------------------------------------------------|x3

e|---------------------------------------------------------------------------|
B|---------------------------------------------------------------------------|
G|---------------------------------------------------------------------------|
D|---------------------------------------------------------------------------|
A|-8-7-5---------------------------------------------------------------------|
E|---------------------------------------------------------------------------|

e|---------------------------------------------------------------------------|
B|---------------------------------------------------------------------------|
G|---------------------------------------------------------------------------|
D|-0-------------------------------------------------------------------------|
A|----3-5-2-3-0---3-5-2-3--0-------------------------------------------------|
E|---------------------------------------------------------------------------|

e|---------------------------------------------------------------------------|
B|---------------------------------------------------------------------------|
G|---------------------------------------------------------------------------|
D|9h10-7---7-----------------10---7---7--------------------------------------|
A|-------7---7--8--12-10-8----------7---7--8--12-10--------------------------|
E|---------------------------------------------------------------------------|

e|---------------------------------------------------------------------------|
B|---------------------------------------------------------------------------|
G|---------------------------------------------------------------------------|
D|-9h10-7----7---------------------------------------------------------------|
A|--------7---7-8-12-10-8---5-7-3-0-2-3-0------------------------------------|
E|---------------------------------------------------------------------------|


e|---------------------------------------------------------------------------|
B|---------------------------------------------------------------------------|
G|---------------------------------------------------------------------------|
D|9h10-7---7-----------------10---7---7--------------------------------------|
A|-------7---7--8--12-10-8----------7---7--8--12-10--------------------------|
E|---------------------------------------------------------------------------|

e|---------------------------------------------------------------------------|
B|---------------------------------------------------------------------------|
G|---------------------------------------------------------------------------|
D|-9h10-7----7---------------------------------------------------------------|
A|--------7---7-8-12-10-8---5-7-3-0-2-3-0------------------------------------|
E|---------------------------------------------------------------------------|

e|---------------------------------------------------------------------------|
B|---------------------------------------------------------------------------|
G|---------------------------------------------------------------------------|
D|--7---7----7-5-------------------------------------------------------------|
A|----7--7-8-----8-7---------------------------------------------------------|
E|---------------------------------------------------------------------------|x3


e|---------------------------------------------------------------------------|
B|---------------------------------------------------------------------------|
G|---------------------------------------------------------------------------|
D|---------------------------------------------------------------------------|
A|-8-7-5---------------------------------------------------------------------|
E|---------------------------------------------------------------------------|

e|---------------------------------------------------------------------------|
B|---------------------------------------------------------------------------|
G|---------------------------------------------------------------------------|
D|-0-------------------------------------------------------------------------|
A|----3-5-2-3-0---3-5-2-3--0-------------------------------------------------|
E|---------------------------------------------------------------------------|
Fine.


Enjoy! Please email me with an comments/corrections/suggestions!

| /  slide up
| \  slide down
| h  hammer-on
| p  pull-off
| ~  vibrato
| +  harmonic
| x  Mute note
===============================================================================
Tap to rate this tab
 
# A B C D E F G H I J K L M N O P Q R S T U V W X Y Z