Song name
# A B C D E F G H I J K L M N O P Q R S T U V W X Y Z

Cake - Palm Of Your Hand tab

-------------------------------------------------------------------------------
			     SONG NAME - Band Name
-------------------------------------------------------------------------------
Tabbed by:
Email:

Tuning:

e|---------------------------------------------------------------------------|
B|----------8-8-----------------8-8------------8-8------8-8------------------|
G|----------7-7-----------------7-7---7--------7-7------7-7---7--------------|
D|-7h9-----------7h9-7h9----------------9---10------9-----------9------------|
A|---------------------------------------------------------------------------|
E|---------------------------------------------------------------------------|

e|---------------------------------------------------------------------------|
B|---------------------------------------------------------------------------|
G|----------9-9----------------9-9------------------7-7---------------7-7----|
D|---7h9----9-9----7h9---7h9---9-9---9-7------------7-7---------------7-7----|
A|-------------------------------------------7h9----------7h9---7h9-------9-7|
E|---------------------------------------------------------------------------|



************************************

| /   slide up
| \   slide down
| h   hammer-on
| p   pull-off
| ~   vibrato
| +   harmonic
| x   Mute note
| b   Bend
| pb  Pre-bend
| br  Bend release
| pbr Pre-bend release
| brb Bend release bend

************************************
Tap to rate this tab
# A B C D E F G H I J K L M N O P Q R S T U V W X Y Z