Song name
# A B C D E F G H I J K L M N O P Q R S T U V W X Y Z

Cake - Shadow Stabbing tab

Help us improve GuitareTab! Take a short survey!
#----------------------------------PLEASE NOTE---------------------------------#
#This file is the author's own work and represents their interpretation of the #
#song. You may only use this file for private study, scholarship, or research. #
#------------------------------------------------------------------------------##

                     Shadow Stabbing (TRADITIONAL)
                         As recorded by Cake

Transcribed by Michael Stump integra_fool@hotmail.com

Intro/Verse Gtr II comes in after 2nd time               4x
||------------|---------------|-----------|--------------||
||o-----------|---------------|-----------|-------------o||
||----9-9-9-9-|---------------|---9-9-9-9-|--------------||
||----9-9-9-9-|---9---9---9-7-|---9-9-9-9-|---9---9---9--||
||o---7-7-7-7-|---9---9---9-7-|---7-7-7-7-|---9---9---9-o||
||--0---------|-7---7---7---5-|-0---------|-7---7---7----||
    Adjectives.......Typewriter

Verse II
||---------|---------------||----------|--------------||
||---------|---------------||o---------|-------------o||
||---------|---------------||----------|--------------||
||---14-/9-|-6-9-7-6h6-7-6-||----14-/9-|-6-9-7---6-7--||
||---12-/7-|-7-------------||o---12-/7-|-7-----7---7-o||
||-0-------|---------------||--0-------|--------------||
  Man..street......well be

   | | | |   | | | |   | | | |   | | | |   | | | |   | | | |
   / / / /   / / / /   / / / /   / / / /   / / / /   / / / /
Chorus
||---------|---------|---------|---------|---------|---------|----------|
||---------|---------|---------|---------|---------|---------|----------|
||---------|---------|---------|---------|---------|---------|----------|
||-7-------|---------|---------|---------|---------|---------|-9-9-9-9--|
||-7-------|---------|---------|---------|---------|---------|-9-9-9-9--|
||-5-------|---------|---------|---------|---------|---------|-7-7-7-7--|

   Outside...                                                Echoes..calls

 Gtr II 2nd time
||---------------|---------------|---------------|---------------|
||---------------|---------------|---------------|---------------|
||---------------|---------------|---------------|---------------|
||-9-9-9-9-------|---------------|---------------|---------------|
||-7-7-7-7-9-7-6-|-6-6-6-6-7-6-4-|-4-4-4-4-6-7-7-|-4-4-4-4-6-7-7-|
||---------------|-7-7-7-7-------|-5-5-5-5-7-----|-5-5-5-5-7-----|
|Gtr I
||---------------|---------------|---------------|---------------||
||o--------------|---------------|---------------|--------------o||
||---------------|---------------|---------------|---------------||
||-2-2-2-2-------|-9-9-9-9-------|-7-7-7-7-------|-7-7-7-7-------||
||o2-2-2-2-------|-9-9-9-9-------|-7-7-7-7-------|-7-7-7-7------o||
||-0-0-0-0-------|-7-7-7-7-------|-5-5-5-5-------|-5-5-5-5-------||
   steel eye...tight jaw......say it all.......say it all

Play whole Verse II through twice then...

||-------------------|---------------11-12-|------------------|----------------||
||o-9-7-----10-9-----|-12-10-9-10-12-------|-9-7-----10-9-----|-7-------------o||
||------9--------9---|---------------------|-----9--------9---|---9-8-9-8------||
||--------9--------9-|---------------------|-------9--------9-|-----------11-9-||
||o------------------|---------------------|------------------|---------------o||
||-------------------|---------------------|------------------|----------------||

Play Intro once then Chorus then Verse II twice then...bah you figure it out.
Peace
Related for Shadow Stabbing tab