Song name
# A B C D E F G H I J K L M N O P Q R S T U V W X Y Z

Cake - Mahna Mahna tab

-------------------------------------------------------------------------------
                             MAHNA MAHNA - Cake
-------------------------------------------------------------------------------
Tabbed by: Tom O.
E-mail: tochylsk@slu.edu

Tuning: Standard

Hey, my first tab.  Didn't see any tabs for this song that seemed right so I tabbed the 
old thing out myself.  Email me if I'm wrong on any of these, this is what it sounds 
like to me.

Intro
e|-----------------------------------------------------------------------------|
B|-----------------------------------------------------------------------------|
G|------10~-12-9-------------10-12-9-------------------------------------------|
D|---12----------10-------12---------------------------------------------------|
A|-----------------------------------------------------------------------------|
E|-----------------------------------------------------------------------------|

e|-----------------------------------------------------------------------------|
B|-----------------------------------------------------------------------------|
G|------10~-12-9-----8/9----8/9----8/9-----------------------------------------|
D|---12----------10-----10-----10-----10--------10-10-10-10--10----------------|
A|----------------------------------------12-10--------------------------------|
E|-----------------------------------------------------------------------------|

Verse
e|-----------------------------------------------------------------------------|
B|-----------------------------------------------------------------------------|
G|-----------------------------------------------------------------------------|
D|-------------3~-5-2-------------------3-5-2----------------------------------|
A|-----------5--------3---------------5----------------------------------------|
E|--5-4-3-2------------------5-4-3-2-------------------------------------------|

e|-----------------------------------------------------------------------------|
B|-----------------------------------------------------------------------------|
G|-----------------------------------------------------------------------------|
D|-------------3~-5-2----1/2----1/2----1/2-------------------------------------|
A|-----------5--------3------3------3------3-----3-3-3-3--3--------------------|
E|--5-4-3-2----------------------------------5-3-------------------------------|

Awesome Bridge-ish type thing
e|-------------------------------8--8/7-7/--/1--1-1/5--5/7/3-3~----------------|
B|--------------5-6-6/8-8~-10--10-10/8-8/--/3--3-3/6--6/9/5-5~-----------------|
G|-------4h5h7-----------------------------------------------------------------|
D|---5h7-----------------------------------------------------------------------|
A|-----------------------------------------------------------------------------|
E|-----------------------------------------------------------------------------|

So that about does it.

Just play it a million times and that's the song.

************************************

| /   slide up
| \   slide down
| h   hammer-on
| p   pull-off
| ~   vibrato
| +   harmonic
| x   Mute note
| b   Bend
| pb  Pre-bend
| br  Bend release
| pbr Pre-bend release
| brb Bend release bend

************************************
Tap to rate this tab
# A B C D E F G H I J K L M N O P Q R S T U V W X Y Z