Song name
# A B C D E F G H I J K L M N O P Q R S T U V W X Y Z

Cake - Nugget tab

Help us improve GuitareTab! Take a short survey!
Title: Nugget
Artist: Cake
Tabbed by: Bobby Foster
Tuning: Standard Tuning


Intro
|------------------------------------------------------------|
|--------------------------------6---------------------------|
|--------------------------------6---------------------------|
|4-4-4-4-4-4-4-3---4-4-4-4-4-4-4-6---------------------------|
|x-x-x-x-x-x-x-x---x-x-x-x-x-x-x-----------------------------|
|2-2-2-2-2-2-2-1---2-2-2-2-2-2-2-----------------------------|


Pre Verse
|---------------------------------------------|
|7-7h9-4/6-4/6-4~-----------------------------|
|8-----4/6-4/6-4~-----------------------------|
|---------------------------------------------|
|---------------------------------------------|
|---------------------------------------------|


Verse
|----------------------------------------------|
|----------------------------------------------|
|----444------------444------------------------|
|--------4-6--46--------4-6--46----------------|
|---------6--6-----------6--6------------------|
|444-------------44----------------------------|
 ...             ..

Chorus
|---------------------------|
|---------------------------|
|---------------------------|
|--4>-6~--------------------|
|---------------------------|
|---------------------------|


Follow-the-trumpet part (work with it)
|---------------------------|
|---------------------------|
|--6b-467-678-779/11--------|
|--7b-----------------------|
|---------------------------|
|---------------------------|


Riff between final verse and outro
|---------------------------|
|---------------------------|
|--4-2-5-4-7-5579-----------|
|--5-3-7-5-9----------------|
|---------------------------|
|---------------------------|


This should give you a good idea. The last 2 parts gave my ears a little trouble, but 
close. I just thought that this song needed a tab because I don't think there's one out there.
Related for Nugget tab