Song name
# A B C D E F G H I J K L M N O P Q R S T U V W X Y Z

Cake - Italian Leather Sofa tab

Help us improve GuitareTab! Take a short survey!
   Actually, this is the cross over after the 2nd chorus after the solo. I'm not sure if 
what he plays but it's close enough.
|-------------------------------------------------------------------------------------|
|-------------------------------------------------------------------------------------|
|---99--7-----77--5-----55--3-----33--1-----------------------------------------------|
|------------------------------------------------99--7-----77--5-----55--3-----33--1--|
|-------------------------------------------------------------------------------------|
|-------------------------------------------------------------------------------------|

|-------------------------------------------------------------------------------------|
|-------------------------------------------------------------------------------------|
|-------------------------------------------------------------------------33----------|
|----------------------------------------------------------------------------------1--|
|--99--7-----77--5-----55--3---33--1-----3-1-3-1-3-1-3-1------------------------------|
|-------------------------------------------------------------------------------------|

    Then go right into the main chorus.
 If you have any alterations or questions contact me at silverdragonhunter54@yahoo.com
Related for Italian Leather Sofa tab