Song name
# A B C D E F G H I J K L M N O P Q R S T U V W X Y Z

Cake - Building A Religion tab

Artis: Cake
Song: Building a religion
this is an awsome skate song!

standard tunning... when u play with the song it sounds like its down in a diffrent tun on the top string.


Intro:
-----------------------------------------------------|
-----------------------------------------------------|
-----------------------------------------------------|
-----------------------------------------------------|
--------------------------0--------------------------|
--0-0-0-0-0-1-0-0-0-0-0-1--1-------------------------|

repeat through the whole song

listen to the song to know when play this part

----12-13-12---10-12-10-10-8-----------------------------|
-------------------------------12-13-12----10-12-10-10-8-|
--9----------9---------------9-----------9---------------|
---------------------------------------------------------|
---------------------------------------------------------|
---------------------------------------------------------|

same thing except in the bass strings

-----------------------------------------------------|
-----------------------------------------------------|
-----------------------------------------------------|
--3-4-3---1-3-1-1------------------------------------|
------------------4---3-4-3---1-3-1-1----------------|
-0------1-----------1-------1---------4--------------|

thats about it this song is awsome.
tabbed by spencer, rome, buddy holly
Tap to rate this tab
 
# A B C D E F G H I J K L M N O P Q R S T U V W X Y Z