Song name
# A B C D E F G H I J K L M N O P Q R S T U V W X Y Z

Cake - No Phone tab

-------------------------------------------------------------------------------
			    No Phone - Cake
-------------------------------------------------------------------------------
Tabbed by: Matthew Hundley

Intro (synth part)

e|---------------------------------------------------------------------------|
B|---17-12-13----12-13-12----12----------------------------------------------|
G|------------14----------14----12-11~---------------------------------------|
D|---------------------------------------------------------------------------|
A|---------------------------------------------------------------------------|
E|---------------------------------------------------------------------------|


Main Theme Repeats throughout entire song, with a few slight variations

e|---------------------------------------------------------------------------|
B|---------------------------------------------------------------------------|
G|---------------------------------------------------------------------------|
D|------------------------------------0-1-2----------------------------------|
A|-----2-2-----3-3-0--0-3-3-0-3-5-5-2----------------------------------------|
E|---0-----3-0---------------------------------------------------------------|

2nd Guitar plays this melody line over the main theme during the verse

e|-----------------------------------------------------------------------------|
B|-----------12--------------------13-12------------13-------------------------|
G|--------12----12----12--------12---------------12----12----12--------12-14-12|
D|-----14----------14--------14---------------14----------14--------14---------|
A|--14--------------------15---------------15----------------------------------|
E|-----------------------------------------------------------------------------|




| /  slide up
| \  slide down
| h  hammer-on
| p  pull-off
| ~  vibrato
| +  harmonic
| x  Mute note
===============================================================================
Tap to rate this tab
 
# A B C D E F G H I J K L M N O P Q R S T U V W X Y Z