Song name
# A B C D E F G H I J K L M N O P Q R S T U V W X Y Z

Cake - When She Walks tab

-------------------------------------------------------------------------------
			     When She Walks - Cake
-------------------------------------------------------------------------------
Tabbed by:Todd
Email:ripbnowell@hotmail.com

Tuning:Standard

e|-5-5---5-5-5----5-5-5-5-5-5-5-----5-5---5-5-5---7-7-7-7-7-7-7--------------|
B|-5-5---5-5-5----7-7-7-7-7-7-7-----5-5---5-5-5---9-9-9-9-9-9-9--------------|
G|-6-6---6-6-6----7-7-7-7-7-7-7-----6-6---6-6-6---9-9-9-9-9-9-9--------------|
D|-7-7---7-7-7----7-7-7-7-7-7-7-----7-7---7-7-7---9-9-9-9-9-9-9--------------|
A|-7-7---7-7-7----------------------7-7---7-7-7------------------------------|
E|-5-5---5-5-5----------------------5-5---5-5-5------------------------------|
Tap to rate this tab
# A B C D E F G H I J K L M N O P Q R S T U V W X Y Z