Song name
# A B C D E F G H I J K L M N O P Q R S T U V W X Y Z

Cake - Race Car Ya-yas tab

The entire song
E)----------------------------------------------------------|
B)-8-------8------------------------------------------------|
G)-----7----------------------------------------------------|
D)---6-------6----------------------------------------------|
A)-7-----7--------------------------------------------------|
E)----------------------------------------------------------|

Other Guitar Part
E)----------------------------------------------------------|
B)----------------------------------------------------------|
G)----------------------------------------------------------|
D)----------------------------------------------------------|
A)-7-8-9-10--(x3)--10-9-8-7-(x2)----------------------------|
E)----------------------------------------------------------|

Trumpet part
E)---15-16~~~-17-16------------15-16~~-14----17-16----------|
B)-17--------------17-15~~~~-17-------------------17-15~~---|
G)----------------------------------------------------------|
D)----------------------------------------------------------|
A)----------------------------------------------------------|
E)----------------------------------------------------------|

stupidest song ever.. but really awesome
Tap to rate this tab
 
# A B C D E F G H I J K L M N O P Q R S T U V W X Y Z