Song name
# A B C D E F G H I J K L M N O P Q R S T U V W X Y Z

Cakra Khan - Setelah Kau Tiada chords

Highlighted       Show chord diagrams
[intro] 
e||---------2--3------|------------------|---0-------------|
B||---------------3---|----------3--3----|-----------------|
G||------0------------|-------0----------|--------0----2---|
D||----0--------------|----4-------------|-----------------|
A||-------------------|-------------3----|-----------------|
E||--3----------------|------------------|-----------------|

e||---------2--3------|------------------|-----------------|
B||---------------3---|----------3--3----|--1--0-----------|
G||------0------------|-------0----------|----------0----2-|
D||----0--------------|----4-------------|-----------------|
A||-------------------|-------------3----|-------------0---|
E|| --3---------------|----2-------------|----------3------|

A#     Cm             Gm 
Tak sempat ku mengerti 
F             D#                Dm Gm 
Kau tunjukkan arah saat ku tersesat 
       D#      F        Dm          Gm 
Beri cahaya saat ku sendiri dalam gelap 
  Cm                        F 
Namun waktu tak pernah rela menunggu   
       Cm           F 
Hingga akhirnya kau pun pergi 

[chorus] 
A#               Cm        D         Gm 
Terlambat ku sadari kau teramat berarti 
          A#7                 D# 
Terlambat tuk kembali dan tuk menanti 
       Dm      Gm         Cm              F    D# F 
Kesempatan kedua yang tak kan mungkin pernah ada 

A#   D        Gm 
Baru ku teringat  
F             D#                 Dm  Gm 
kau hembuskan angin saat ku bernafas  
         D#     A        Dm         Gm 
siramkan air saat aku dalam kekeringan 
  Cm                         F 
Namun tak pernah ku hiraukan semuanya 
       Cm            F 
Hingga kini pun kau tiada 

[chorus] 
A#               Cm        D         Gm 
Terlambat ku sadari kau teramat berarti 
          A#7                 D# 
Terlambat tuk kembali dan tuk menanti 
       Dm      Gm         Cm              F    A# 
Kesempatan kedua yang tak kan mungkin pernah ada 

Am   D        Gm    F          C 
biarkan aku hidup dalam penyesalan ini 
   Cm                      F    G 
sampai nanti kau akan kembali hiyeee 

[chorus:overtone] 
C                Dm        E         Am 
Terlambat ku sadari kau teramat berarti 
          C7                  F 
Terlambat tuk kembali dan tuk menanti 
       Em      Am         Dm              G    C 
Kesempatan kedua yang tak kan mungkin pernah ada 
C                Dm        E         Am 
Terlambat ku sadari kau teramat berarti 
          C7                  F 
Terlambat tuk kembali dan tuk menanti 
       Em      Am         Dm              G     
Kesempatan kedua yang tak kan mungkin pernah ada 

[outro] F Em  

         Dm             G     C 
yang tak kan mungkin pernah ada
Tap to rate this tab
# A B C D E F G H I J K L M N O P Q R S T U V W X Y Z