Song name
# A B C D E F G H I J K L M N O P Q R S T U V W X Y Z

Calabrese - Phantasmagoria tab

-------------------------------------------------------------------------------
		Phantasmagoria  - Calabrese
-------------------------------------------------------------------------------
Tabbed by:Luis Alvarez
Email:goingdown2die@yahoo.com


    Intro 2x--- and add the fill second time
e|-----------------------------------------------------------------------------|
B|-----------------------------------------------------------------------------|
G|---7-------10--------11--10--8--10-------------------------------------------|
D|---7-------10----------------------------------------------------------------|
A|---5--------8----------------------------------------------------------------|
E|-----------------------------------------------------------------------------|
    2x ---add bend second time
e|-----------------------------------------------------------------------------|
B|-----------------------------------------------------------------------------|
G|---7-------10----------------------------------------------------------------|
D|---7-------10-----------^----------------------------------------------------|
A|---5--------8-----------10---------------------------------------------------|
E|-----------------------------------------------------------------------------|

      6x each chord
e|-----------------------------------------------------------------------------|
B|-----------------------------------------------------------------------------|
G|---7----10-------------------------------------------------------------------|
D|---7----10---8------------------7-----8-7------------------------------------|
A|---5-----8---8------------------7-----8-7------------------------------------|
E|--------------6-----------------5-----6-5------------------------------------|

    Verse 4x ---add last chord the forth time
e|-----------------------------------------------------------------------------|
B|-----------------------------------------------------------------------------|
G|---7-------10----------------------------------------------------------------|
D|---7-------10---8----------7-------------------------------------------------|
A|---5--------8---8----------7-------------------------------------------------|
E|-----------------6----------5------------------------------------------------|

    Chorus 4x
e|---------------------------------------------------------------------------|
B|---------------------------------------------------------------------------|
G|----7----------------------------------------------------------------------|
D|----7---8---7--------------------------------------------------------------|
A|----5---8---7--------------------------------------------------------------|
E|--------6---5--------------------------------------------------------------|

  Verse 4x ---add last chord the forth time
e|-----------------------------------------------------------------------------|
B|-----------------------------------------------------------------------------|
G|---7-------10----------------------------------------------------------------|
D|---7-------10---8---------7--------------------------------------------------|
A|---5--------8---8---------7--------------------------------------------------|
E|-----------------6---------5-------------------------------------------------|

    Chorus 4x
e|-----------------------------------------------------------------------------|
B|-----------------------------------------------------------------------------|
G|----7------------------------------------------------------------------------|
D|----7---8---7----------------------------------------------------------------|
A|----5---8---7----------------------------------------------------------------|
E|---------6---5---------------------------------------------------------------|

  Break  6x
e|---------------------------------------------------------------------------|
B|------------2--------------------------------------------------------------|
G|----7---3---2--------------------------------------------------------------|
D|----7---3---2--------------------------------------------------------------|
A|----5---1------------------------------------------------------------------|
E|---------------------------------------------------------------------------|
     Solo 3x on third finish with 12
e|-----------------------------------------------------------------------------|
B|-----------------------------------------------------------------------------|
G|-----------------------------------------------------------------------------|
D|------------^------------^---------------------------------------------------|
A|---5-7-8-10----------12------------------------------------------------------|
E|-----------------------------------------------------------------------------|

The solo can be played in many positions on the fretboard. I just did the most convenient one.
Listen to the song and play along and you'll catch the changes. There are two guitars on 
recording but you don't really need another one. Questions or comments email goingdown2die@yahoo.com
Enjoy


| /  slide up
| \  slide down
| h  hammer-on
| p  pull-off
| ~  vibrato
| +  harmonic
| x  Mute note
===============================================================================
Tap to rate this tab
# A B C D E F G H I J K L M N O P Q R S T U V W X Y Z