Song name
# A B C D E F G H I J K L M N O P Q R S T U V W X Y Z

Calabrese - Midnight Spookshow tab

Song: Midnight Spookshow
Artist: Calabrese
Album: 13 Halloweens
Tuning: Standard
------------------------------------------------|

Intro:
E|--------------------------------|
B|--------------------------------| 
G|-5------5------5----------------|
D|-5-5555-5-6666-5-5555-3333333-6-| 
A|-3-5555-3-6666-3-5555-3333333-6-| 
E|---3333---4444---3333-1111111-4-| (x2)

Chorus:
E|---------------------------------|  [Woah (woah),
B|---------------------------------|   Woah, Midnight Spookshow!]
G|-5-55555-----------------8-88888-|
D|-5-55555-5-55555-6-66666-8-88888-|
A|-3-33333-5-55555-6-66666-6-66666-|
E|---------3-33333-4-44444---------| (x2)

Verse 1:
E|---------------------------------|  [Spirits return with laughs and chills,
B|---------------------------------|   Living zombies and graveyard thrills. 
G|-5-55555-------------------------|   Smell and feel your flesh sizzle and sputter,
D|-5-55555-6-66666-8-88888-5-55555-|   While being burned alive.]
A|-3-33333-6-66666-8-88888-5-55555-|
E|---------4-44444-6-66666-3-33333-| (x2)

Bridge 1:
E|---------------------------------|
B|---------------------------------|
G|---------------------------------|
D|-6-66666-6-66666-5-55555-5-55555-|
A|-6-66666-6-66666-5-55555-5-55555-|
E|-4-44444-4-44444-3-33333-3-33333-| (x2)

Verse 2:
E|---------------------------------|  [Horror strikes at midnight tonight,
B|---------------------------------|   Living mummy, terror of the tomb. 
G|-5-55555-------------------------|   Weird woman, unearthly creature,
D|-5-55555-6-66666-8-88888-5-55555-|   Face-to-face with the Spirit World.]
A|-3-33333-6-66666-8-88888-5-55555-|
E|---------4-44444-6-66666-3-33333-| (x2)

Bridge 2:
E|---------------------------------|  [On second time through:
B|---------------------------------|   The Spirit World.]
G|---------------------------------|
D|-6-66666-6-66666-5-55555-5-55555-|
A|-6-66666-6-66666-5-55555-5-55555-|
E|-4-44444-4-44444-3-33333-3-33333-| (x2)

Outro:                                    End On:
E|--------------------------------|      E|---|
B|--------------------------------|      B|---|
G|-5------5------5----------------|      G|-5-|
D|-5-5555-5-6666-5-5555-3333333-6-|      D|-5-|
A|-3-5555-3-6666-3-5555-3333333-6-|      A|-3-|
E|---3333---4444---3333-1111111-4-| (x2) E|---|


Song Order:
Intro
Chorus
Verse 1
Bridge 1
Chorus
Verse 2
Bridge 2
Chorus (x2)
Outro
------------------------------------------------|
Note: This is the first tab I've submitted in years, 
so forgive any mistakes and feel free to leave a 
comment below!
- Yami Rotten
Tap to rate this tab
# A B C D E F G H I J K L M N O P Q R S T U V W X Y Z