Song name
# A B C D E F G H I J K L M N O P Q R S T U V W X Y Z

Calexico - Cruel tab

song: cruel
artist: calexico
album: garden ruin

the much sought after picked intro tab!
[well my rough outline, really]
i'm sure this is factually very wrong, but i just wanted to post it in hopes that 
can correct me, or else improvise their own version based on it.
it needed to be done.

since the song is often played with a capo on the 3rd, that would be most reccommended 
the intro as well. otherwise, base it off whatever key you're playing the song in. then 
make more sense.

Intro:


E----------------------------------|----------------------------------|
B----------------------------------|----------------------------------|
G----------------------------------|----0-0-----0-0-------------------|
D------2-2-----2-2-----3-3-----3-3-|----------------------0-0----0-0--|
A--0-0-----0-0------0-0-----0-0----|----------------------------------|
E----------------------------------|-3-3-----3-3------3-3-----3-3-----|

                                          Verse [cruel, cruel grounds...]
E----------------------------------|----------------------------------|
B----------------------------------|---------1------------------------|
G----------------------------------|-------0--------------------------|
D----------------------------------|-----2----------------------------|
A------3-3-----3-3------2-2----2-2-|---3------------------------------|
E--1-1-----1-1-------1-1----1-1----|----------------------------------|


the actual verse starts on C, start song from picked C chord at end of intro.
Tap to rate this tab
# A B C D E F G H I J K L M N O P Q R S T U V W X Y Z