Song name
# A B C D E F G H I J K L M N O P Q R S T U V W X Y Z

Calexico - Ballad Of Cable Hogue tab

Ballad of cable Hogue solo

Light crunch, reverb, tremolo

        Am         Am           G
--------|----------|------------|--------|
--------|----------|------------|--------|
--------|----------|------------|--------|
-2-0----|----------|0----7------|--5-----|
-----3-2|-0----3/5.|../7----5/7-|5-----5-|
--------|----------|------------|--------|


Am         Am         Am         G       G
|----------|----------|----------|-------|
|----------|----5-(7)-|5---------|-------|
|------5---|--7-------|--7-5h7-5-|4------|
|----7---7-|7---------|----------|-------|
|5/7-------|----------|----------|-------|
|----------|----------|----------|---3~~-|

Then comes trumpet  Dm    Am
                    Am G F   Am


Comments :
gueguet2@hotmail.fr
Tap to rate this tab
 
# A B C D E F G H I J K L M N O P Q R S T U V W X Y Z