Guitaretab - guitar tabs
Song name
# A B C D E F G H I J K L M N O P Q R S T U V W X Y Z

Caliban - The Revenge tab

1ra||------------------------------------------------------------||x2
2da||------------------------------------------------------------||
3ra||------------------------------------------------------------||
4ta||------------------------------------------------------------||
5ta||-5--7--8--10--5--8--7--10--3--5--8-7-8-7---5-8-7-5-10-8-7-8-||
6ta||--0---0--0---0--0--0--0--0--0--0----------------------------||

||--------||x8
||--------||
||-----5--||
||-0-0----||
||-0-0-3--||
||-0-0----||

||------------------------------------------------------------||
||------------------------------------------------------------||
||------------------------------------------------------------||
||------------------------------------------------------------||
||-5--7--8--10--5--8--7--10--3--5--8-7-8-7---5-8-7-5-10-8-7-8-||
||--0---0--0---0--0--0--0--0--0--0----------------------------||

||------------------------------------------------------------||
||------------------------------------------------------------||
||------------------------------------------------------------||
||---------------------------------------------------7-3-5----||
||-5--7--8--10--5--8--7--10--3--5--8-7-8-7---5-8-7-5-5-1-3----||
||--0---0--0---0--0--0--0--0--0--0----------------------------||
[ Tab from: http://www.guitaretab.com/c/caliban/101868.html ]
||--------------------||x4
||--------------------||
||--------------------||
||-0-0-0-5-5-5-3-3-3-0||
||-0-0-0-3-3-3-1-1-1-0||
||-0-0-0-------------0||


||---------------------||------------------||x3 
||---------------------||------------------||	
||---------------------||------------------||	
||---------------------||------------------||	
||---3--5--1---3--5--1-||--3--5--1-5-3-2-1-||	
||-0--0--0---0--0--0---||-0-0--0-----------||	

	
||---------------||--------------------------||x2
||---------------||--------------------------||
||---------------||--------------------------||
||-------------3-||--------------------------||
||--3-5-1--3-5---||--3-5-1-5-3-2-1--5-3-2-1--||
||-0-0-0--0-0-0--||-0-0-0--------------------||



||---------------------||x4
||---------------------||
||---------------------||
||-0-0-0-5-5-5-3-3-3-0~||
||-0-0-0-3-3-3-1-1-1-0~||
||-0-0-0-------------0~||

||------------------------------------------------------------||x2
||------------------------------------------------------------||
||------------------------------------------------------------||
||------------------------------------------------------------||
||-5--7--8--10--5--8--7--10--3--5--8-7-8-7---5-8-7-5-10-8-7-8-||
||--0---0--0---0--0--0--0--0--0--0----------------------------||

||------||
||------||
||------||
||-0~~~-||
||-0~~~-||
||-0~~~-||

||--------||x8
||--------||
||-----5--||
||-0-0----||
||-0-0-3--||
||-0-0----||
Related for The Revenge tab