Song name
# A B C D E F G H I J K L M N O P Q R S T U V W X Y Z

Caliban - Army Of Me tab

Help us improve GuitareTab! Take a short survey!
-------------------------------------------------------------------------------
			     ARMY OF ME - Caliban
-------------------------------------------------------------------------------
Tabbed by: Masochist_Lust
Email: abiophoria@gmail.com

Tuning: Drop C (CGCFAD)

Main Riff:
D|-------------------------------------------------------------------------|
A|-------------------------------------------------------------------------|
F|-------------------------------------------------------------------------|
C|-------------------------------------------------------------------------|
G|-------------------------------------------------------------------------|
C|--0-1-0-8-6-0-1-1---0-1-0-8-6-0-1-1---0-1-0-8-6-0-1-1---0-1-0-8-6-0-1-1--|


Chorus:
Sustain:
D|-----|
A|-----|
F|-----|
C|--0--|
G|--0--|
C|--0--|
Hold and continue holding through next riff

Main Riff Variation:
D|-------------------------------------------------------------------------|
A|-------------------------------------------------------------------------|
F|-------------------------------------------------------------------------|
C|--0-1-0-8-7-0-1-3---0-1-0-8-7-0-1-3---0-1-1-8-7-0-1-3---0-1-0-8-7-0-1-3--|
G|-------------------------------------------------------------------------|
C|-------------------------------------------------------------------------|
Play until the main riff starts again

Bridge Intro:
D|-------|
A|-------|
F|-------|
C|--0-1--|
G|--0-1--|
C|--0-1--|

Bridge:
D|---------------------------------------------------------------|
A|---------------------------------------------------------------|
F|---------------------------------------------------------------|
C|----------0-0-0-----------0-00-00-----------0000-00---0000-00--|
G|----------0-0-0---1-------0-00-00-----------0000-00---0000-00--|
C|--0-1-0---0-0-0-----1-0---0-00-00---0-1-0---0000-00---0000-00--|
            x x x           x xx xx           xxxx xx   xxxx xx
Play this four times

Main Riff: x4
Chorus 3:
D|------------------------------------------------------|
A|------------------------------------------------------|
F|------------------------------------------------------|
C|----------8\\\---00-1---------------8\\\---00-1-------|
G|----------8\\\---00-1---------------8\\\---00-1-------|
C|--0-0-0---8\\\---00-1-00-1--0-0-0---8\\\---00-1-00-1--|
                   xx                        xx
Play this only once

Chorus:
Chorus 4:
D|--------------------------------------------------|
A|--------------------------------------------------|
F|--------------------------------------------------|
C|--0---8\\\---00-1---------------8\\\---00-1-------|
G|--0---8\\\---00-1---------------8\\\---00-1-------|
C|--0---8\\\---00-1-00-1--0-1-0---8\\\---00-1-00-1--|
    x          xx                        xx

Chorus:
Outro:
D|-------------|
A|-------------|
F|-------------|
C|--10------7--|
G|--8-------5--|
C|--8-------5--|

-|Guitar one
D|-----------------------------------------------------------|
A|-----------------------------------------------------------|
F|-----------------------------------------------------------|
C|------0--0-0-0------0--0-00-00--------0-0000-00------------|
G|--5-5-0--0-0-0--3-3-0--0-00-00--8--8--0-0000-00-5-8--7--3--|
C|------0--0-0-0------0--0-00-00--------0-0000-00------------|
-|Guitar two                                                 |
D|-----------------------------------------------------------|
A|-----------------------------------------------------------|
F|-----------------------------------------------------------|
C|------0--0-0-0------0--0-00-00--------0-0000-00------------|
G|--8-8-0--0-0-0--7-7-0--0-00-00--12-12-0-0000-00-8-12-10-7--|
C|------0--0-0-0------0--0-00-00--------0-0000-00------------|
        x  x x x      x  x xx xx        x xxxx xx

-|Guitar one
D|-----------------------------------------------------------|
A|-----------------------------------------------------------|
F|-----------------------------------------------------------|
C|------0--0-0-0------0--0-00-00--------0-0000-00---00-0000--|
G|--5-5-0--0-0-0--3-3-0--0-00-00--8--8--0-0000-00---00-0000--|
C|------0--0-0-0------0--0-00-00--------0-0000-00---00-0000--|
-|Guitar two
D|-----------------------------------------------------------|
A|-----------------------------------------------------------|
F|-----------------------------------------------------------|
C|------0--0-0-0------0--0-00-00--------0-0000-00---00-0000--|
G|--8-8-0--0-0-0--7-7-0--0-00-00--12-12-0-0000-00---00-0000--|
C|------0--0-0-0------0--0-00-00--------0-0000-00---00-0000--|
        x  x x x      x  x xx xx        x xxxx xx   xx xxxx

| /  slide up
| \  slide down
| h  hammer-on
| p  pull-off
| ~  vibrato
| +  harmonic
| x  Mute note
===============================================================================

Stand up 
Youve got to manage 
I wont sympathize
Anymore

If you complain once more
You'll meet an army of me
If you complain once more
You'll meet an army of me
An army of me

Youre all right
Theres nothing wrong
Self sufficiency please
And get to work

If you complain once more
You'll meet an army of me
If you complain once more
You'll meet an army of me
An army of me

You're alone now
We won't save you

We
Won't
Save
You
We
Won't
Save
You
We
Won't
Save
You
We
Won't
Save you

Youre on your own now 
We wont save you
Your rescue squad
Is too exhausted

If you complain once more
You'll meet an army of me
If you complain once more
You'll meet an army of me
An army of me
Related for Army Of Me tab