Song name
# A B C D E F G H I J K L M N O P Q R S T U V W X Y Z

Caliban - No One Is Safe tab

-------------------------------------------------------------------------------
                             No One is Safe - Caliban
-------------------------------------------------------------------------------
Tabbed by: Martinoob
E-mail:Martin1990991@gmx.de

Tuning: Drop A


0:04-13

guitar 1
B |----------------------------------------------------------|
F#|----------------------------------------------------------|
D |----------------------------------------------------------|
A |---------55552222------------------------55552222-4---5---|
E |-------------------------22223333-----------------2---3---|
A |-22222222--------22222222--------22222222-----------------|

guitar 2
B |----------------------------------------------------------|
F#|----------------------------------------------------------|
D |----------------------------------------------------------|
A |-2------------------------------------------------4---5---|
E |-2------------------------------------------------2---3---|
A |-2--------------------------------------------------------|


guitar 1
B |----------------------------------------------------------|
F#|----------------------------------------------------------|
D |----------------------------------------------------------|
A |---------55552222------------------------55552222-2---4---|
E |-------------------------22220000-----------------3---5---|
A |-22222222--------22222222--------22222222-----------------|

guitar 2
B |----------------------------------------------------------|
F#|----------------------------------------------------------|
D |----------------------------------------------------------|
A |-2~~-------------2---------------2~~--------------2---4---|
E |-2~~-------------2---------------2~~--------------3---5---|
A |-2~~-------------2---------------2~~----------------------|



0:13-0:33

guitar 1
B |----------------------------------------------------------|
F#|----------------------------------------------------------|
D |----------------------------------------------------------|
A |---------55552222------------------------55552222-4---5---|
E |-------------------------22223333-----------------2---3---|
A |-22222222--------22222222--------22222222-----------------|

guitar 2
B |----------------------------------------------------------|
F#|----------------------------------------------------------|
D |----------------------------------------------------------|
A |---------77775555------------------------77775555-4---5---|
E |-------------------------66667777-----------------2---3---|
A |-22222222--------22222222--------22222222-----------------|


guitar 1
B |----------------------------------------------------------|
F#|----------------------------------------------------------|
D |----------------------------------------------------------|
A |---------55552222------------------------55552222-2---4---|
E |-------------------------22220000-----------------3---5---|
A |-22222222--------22222222--------22222222-----------------|

guitar 2
B |----------------------------------------------------------|
F#|----------------------------------------------------------|
D |----------------------------------------------------------|
A |---------77775555------------------------77775555-2---4---|
E |-------------------------66663333-----------------3---5---|
A |-22222222--------22222222--------22222222-----------------|



0:33-0:53

both guitars
B |------------------------------------------------------------------------|
F#|------------------------------------------------------------------------|
D |------------------------------------------------------------------------|
A |-----12---12------9---9---9-9---9----------1---1------2---2---2-2---2---|
E |-----10---10------7---7---7-7---7----------2---2------3---3---3-3---3---|
A |-2-------------------------------------2--------------------------------|


B |------------------------------------------------------------------------|
F#|------------------------------------------------------------------------|
D |------------------------------------------------------2---2---2-2---2---|
A |-----12---12------9---9---9-9---9----------1---1------2---2---2-2---2---|
E |-----10---10------7---7---7-7---7----------2---2------0---0---0-0---0---|
A |-2-------------------------------------2--------------------------------|



0:53-1:15

both guitars (or maybe just one guitar doing the high notes)
B |---------------------------------------------------------|
F#|-13------------------------------------------------------|
D |-16------------------------------------------------------|
A |----222-222----2--2--2----2--2--2--3-222-222----2--2--2--|
E |----222-222----2--2--2----2--2--2--3-222-222----2--2--2--|
A |----222-222----2--2--2----2--2--2--3-222-222----2--2--2--|


B |---------------------------------------------------------------|
F#|-6---9--13-----------------------------------------------------|
D |-9--12--16-----------------------------------------------------|
A |-----------222-222----2--2--2----2--2--2--3-222-222----2--2--2-|
E |-----------222-222----2--2--2----2--2--2--3-222-222----2--2--2-|
A |-----------222-222----2--2--2----2--2--2--3-222-222----2--2--2-|


B |-----------------------------|
F#|-----------------------------|
D |-----------------------------|
A |-2--2------------------------|
E |-2--2------------------------|
A |-2--2--6--5b~~--6.5r~~--5.5--|


B |-----------------------------------------------------|
F#|-----------------------------------------------------|
D |-----------------------------------------------------|
A |-000-000----0--0--0----0--0--0--1-000-000----0--0--0-|
E |-000-000----0--0--0----0--0--0--1-000-000----0--0--0-|
A |-000-000----0--0--0----0--0--0--1-000-000----0--0--0-|


B |-----------------------------------------------------------------------|
F#|-------13--------------------------------------------------------------|
D |-------16--------------------------------------------------------------|
A |-0--4-----000-000----0--0--0----0--0--0--1-000-000----0--0--0--0--0--4-|
E |-0--4-----000-000----0--0--0----0--0--0--1-000-000----0--0--0--0--0--4-|
A |-0--4-----000-000----0--0--0----0--0--0--1-000-000----0--0--0--0--0--4-|



1:15-1:25

both guitars
B |----------------------------------------------------------------|
F#|----------------------------------------------------------------|
D |----------------------------------------------------------------|
A |-4----------------------------4---------------------------------|
E |-4--444-444----444-444----444-4--444-444----444-444--3--3--3--3-|
A |-4--444-444----444-444----444-4--444-444----444-444--3--3--3--3-|



2:13-2:33

both guitars(w/ fade in)
B |------------------------------------------------------------------|
F#|------------------------------------------------------------------|
D |------------------------------------------------------------------|
A |-2----------------2~--------------------2----------------2~-------|
E |-2----2--4--5--5--2~---2222-2--2--2--2--2----2--4--5--5--2~-------|
A |-2----2--2--2--2--2~---2222-2--2--2--2--2----2--2--2--2--2~-------|

B |------------------------------------------------------------------|
F#|------------------------------------------------------------------|
D |------------------------------------------------------------------|
A |-2----------------2~--------------------4----------------5~-------|
E |-2----2--4--5--5--2~---2222-2--2--2--2--4----4--4--4--4--5~-------|
A |-2----2--2--2--2--2~---2222-2--2--2--2--4----4--4--4--4--5~-------|



2:33-2:52

guitar 1
B |------------------------------------------------------------------|
F#|------------------------------------------------------------------|
D |------------------------------------------------------------------|
A |-5----------------5~--------------------5----------------5~-------|
E |-5----5--5--5--5--5~---5555-5--5--5--5--5----5--5--5--5--5~-------|
A |-5----5--5--5--5--5~---5555-5--5--5--5--5----5--5--5--5--5~-------|

guitar 2 (fills)
B |------------------------------------------------------------------|
F#|------------15~~-----------------------------------15b16r15b1615~-|
D |-12---14-15-----------------------------12---14-15----------------|
A |------------------------------------------------------------------|
E |------------------------------------------------------------------|
A |------------------------------------------------------------------|


guitar 1
B |------------------------------------------------------------------|
F#|------------------------------------------------------------------|
D |------------------------------------------------------------------|
A |-5----------------5~--------------------7----------------8~-------|
E |-5----5--5--5--5--5~---5555-5--5--5--5--7----7--7--7--7--8~-------|
A |-5----5--5--5--5--5~---5555-5--5--5--5--7----7--7--7--7--8~-------|

guitar 2 (fills)
B |------------------------------------------------------------------|
F#|------------14~~--------------------------------------------------|
D |-12---14-15-------------------------------------------------------|
A |------------------------------------------------------------------|
E |------------------------------------------------------------------|
A |------------------------------------------------------------------|



2:52-2:58

both guitars
B |---------------------------------------------------------------------------------|
F#|---------------------------------------------------------------------------------|
D |---------------------------------------------------------------------------------|
A |-0~-----------------------------0~----------------------------------0----------0-|
E |-0~---222-222----222-222--2--2--0~--------222-222----222-222--2--2--0----2--2--0-|
A |-0~---222-222----222-222--2--2--0~--------222-222----222-222--2--2--0----2--2--0-|



************************************

| /    slide up
| \    slide down
| h    hammer-on
| p    pull-off
| ~    vibrato
| +    harmonic
| x    Mute note
| b    Bend
| pb   Pre-bend
| br   Bend release
| pbr  Pre-bend release
| brb  Bend release bend
| p.h. pinch harmonic

************************************
Tap to rate this tab
# A B C D E F G H I J K L M N O P Q R S T U V W X Y Z