Song name
# A B C D E F G H I J K L M N O P Q R S T U V W X Y Z

Caliban - Deadly Dream tab

-------------------------------------------------------------------------------
                             Deadly Dream - Caliban
-------------------------------------------------------------------------------
Tabbed by: Martinoob
E-mail:Martin1990991@gmx.de

Tuning: Drop A



*note: the * in some riffs are just for a better overview


0:00-0:07

both guitars
B |----------------------------------------------------------|
F#|----------------------------------------------------------|
D |----------------------------------------------------------|
A |----------------------------------------------------------|
E |-8888777788885555--------8888777788885555-----------------|
A |-----------------00000000----------------0000000055557777-|


B |--------------------------------------------------|
F#|--------------------------------------------------|
D |--------------------------------------------------|
A |--------------------------------------------------|
E |-8888777788885555--------8888777788885555---------|
A |-----------------00000000----------------00000000-|


B |-----------------------------------|
F#|-----------------------------------|
D |-----------------------------------|
A |-----------------------------------|
E |-----------------------------------|
A |-88887777555577778888777755557777--|



0:07-0:13

guitar 1
B |----------------------------------------------------------|
F#|----------------------------------------------------------|
D |----------------------------------------------------------|
A |----------------------------------------------------------|
E |-8888777788885555--------8888777788885555-----------------|
A |-----------------00000000----------------0000000055557777-|

guitar 2
B |----------------------------------------------------------|
F#|----------------------------------------------------------|
D |----------------------------------------------------------|
A |-777755557777------------777755557777---------------------|
E |-------------8888--------------------8888-----------------|
A |-----------------00000000----------------0000000055557777-|


guitar 1
B |--------------------------------------------------|
F#|--------------------------------------------------|
D |--------------------------------------------------|
A |--------------------------------------------------|
E |-8888777788885555--------8888777788885555---------|
A |-----------------00000000----------------00000000-|

guitar 2
B |--------------------------------------------------|
F#|--------------------------------------------------|
D |--------------------------------------------------|
A |-777755557777------------777755557777-------------|
E |-------------8888--------------------8888---------|
A |-----------------00000000----------------00000000-|



0:13-0:16

both guitars
B |----------------------------------|
F#|----------------------------------|
D |----------------------------------|
A |----------------------------------|
E |----------------------------------|
A |-88887777555577778888777755557777-|


B |----------------------------------|
F#|----------------------------------|
D |----------------------------------|
A |----------------------------------|
E |-4444------------4444-------------|
A |-----888877778888----888877778888-|

*or 11īs instead of 4īs



0:16-0:28

both guitars
B |------------------------------------------------------------|
F#|------------------------------------------------------------|
D |------------------------------------------------------------|
A |000000000---000000000---0000000000000---000000000---00000000|
E |000000000---000000000---0000000000000---000000000---00000000|
A |000000000---000000000---0000000000000---000000000---00000000|
   *   *   *   *   *   *   *   *   *   *   *   *   *   *   *   



0:28-0:54

guitar 1
B |-----------------------------------------------------------------|
F#|-----------------------------------------------------------------|
D |-----------------------------------------------------------------|
A |-0-0---------0-0-0-0-0-0-0-0-0-0-0-0---------0-0---------0-0-0-0-|
E |-0-0-5---4---0-0-0-0-0-0-0-0-0-0-0-0-5---4---0-0-5-4---4-0-0-0-0-|
A |-0-0---4---3-0-0-0-0-0-0-0-0-0-0-0-0---4---3-0-0-----7---0-0-0-0-|
    *       *       *       *       *       *       *       *        

guitar 2
B |-----------------------------------------------------------------|
F#|-----------------------------------------------------------------|
D |-----------------------------------------------------------------|
A |-0-0---------0-0-0-0-0-0-0-0-0-0-0-0---------0-0---------0-0-0-0-|
E |-0-0-5---4---0-0-0-0-0-0-0-0-0-0-0-0-5---4---0-0-8-7-5-7-0-0-0-0-|
A |-0-0---4---3-0-0-0-0-0-0-0-0-0-0-0-0---4---3-0-0---------0-0-0-0-|
    *       *       *       *       *       *       *       *  


guitar 1
B |-----------------------------------------------------------------|
F#|-----------------------------------------------------------------|
D |-----------------------------------------------------------------|
A |-0-0---------0-0-0-0-0-0-0-0-0-0-0-0---------0-0---------0-0-0-0-|
E |-0-0-5---4---0-0-0-0-0-0-0-0-0-0-0-0-5---4---0-0-8-7-8-5-0-0-0-0-|
A |-0-0---4---3-0-0-0-0-0-0-0-0-0-0-0-0---4---3-0-0---------0-0-0-0-|
    *       *       *       *       *       *       *       *        

guitar 2
B |-----------------------------------------------------------------|
F#|-----------------------------------------------------------------|
D |-----------------------------------------------------------------|
A |-0-0---------0-0-0-0-0-0-0-0-0-0-0-0---------0-0-7-5-7---0-0-0-0-|
E |-0-0-5---4---0-0-0-0-0-0-0-0-0-0-0-0-5---4---0-0-------8-0-0-0-0-|
A |-0-0---4---3-0-0-0-0-0-0-0-0-0-0-0-0---4---3-0-0---------0-0-0-0-|
    *       *       *       *       *       *       *       *        



0:54-0:56

both guitars
B |-----------------|
F#|-----------------|
D |-----------------|
A |-----------------|
E |-5-------4-------|
A |---3-2-3---3-2-3-|



0:56-1:08

both guitars
B |------------------------------------------------------------|
F#|------------------------------------------------------------|
D |------------------------------------------------------------|
A |000000000---000000000---0000000000000---000000000---00000000|
E |000000000---000000000---0000000000000---000000000---00000000|
A |000000000---000000000---0000000000000---000000000---00000000|
   *   *   *   *   *   *   *   *   *   *   *   *   *   *   *   



1:08-1:34

guitar 1
B |----------------------------------------------------------------|
F#|----------------------------------------------------------------|
D |----------------------------------------------------------------|
A |-0~~---------4---1~~-------------5~~-----4~~-----3~~------------|
E |-0~~---------4---1~~-------------5~~-----4~~-----3~~------------|
A |-0~~---------4---1~~-------------5~~-----4~~-----3~~------------|
   
guitar 2 (not sure, maybe trem. pick the notes)
B |----------------------------------------------------------------|
F#|---------------------------------11~~----8~~-----10~~-----------|
D |-7~~-------------8~~--------------------------------------------|
A |----------------------------------------------------------------|
E |----------------------------------------------------------------|
A |----------------------------------------------------------------|


guitar 1
B |----------------------------------------------------------------|
F#|----------------------------------------------------------------|
D |----------------------------------------------------------------|
A |-2~~-----------------------------1~~----------------------------|
E |-3~~-----------------------------1~~----------------------------|
A |-2~~-----------------------------1~~----------------------------|

guitar 2
B |----------------------------------------------------------------|
F#|----------------------------------------------------------------|
D |-5~~-------------5~~-------------8~~-----------------8~~--------|
A |-------------------------------------------------8~-------------|
E |----------------------------------------------------------------|
A |----------------------------------------------------------------|
   


1:50-1:56

both guitars
B |-----------------------------------|
F#|-----------------------------------|
D |-----------------------------------|
A |-----------------------------------|
E |-5---4--------5---4--------5---4---|
A |---4---3-0000---4---3-0000---4---3-|



1:56-2:03

both guitars (palm mute all)
B |-----------------------------------|
F#|-----------------------------------|
D |-----------------------------------|
A |-----------------------------------|
E |-55--44------55--44------55--44----|
A |---44--330000--44--330000--44--33--|



2:06-2:07

both guitars
B |---------|
F#|---------|
D |---------|
A |---------|
E |-5---4---|
A |---4---3-|



2:07-2:20

guitar 1
B |-----------------------------------------------------------------|
F#|-----------------------------------------------------------------|
D |-----------------------------------------------------------------|
A |-0-0-0-0-0-0-0-0-0-0-0-0---------0-0-0-0---------0-0-0-0---------|
E |-0-0-0-0-0-0-0-0-0-0-0-0-5---4---0-0-0-0-5-4---4-0-0-0-0-5---4---|
A |-0-0-0-0-0-0-0-0-0-0-0-0---4---3-0-0-0-0-----7---0-0-0-0---4---3-|
    *       *       *       *       *       *       *       *

guitar 2
B |-----------------------------------------------------------------|
F#|-----------------------------------------------------------------|
D |-----------------------------------------------------------------|
A |-0-0-0-0-0-0-0-0-0-0-0-0---------0-0-0-0---------0-0-0-0---------|
E |-0-0-0-0-0-0-0-0-0-0-0-0-5---4---0-0-0-0-8-7-8-7-0-0-0-0-5---4---|
A |-0-0-0-0-0-0-0-0-0-0-0-0---4---3-0-0-0-0---------0-0-0-0---4---3-|
    *       *       *       *       *       *       *       *


guitar 1
B |-----------------------------------------------------------------|
F#|-----------------------------------------------------------------|
D |-----------------------------------------------------------------|
A |-0-0-0-0-0-0-0-0-0-0-0-0---------0-0-0-0---------0-0-0-0---------|
E |-0-0-0-0-0-0-0-0-0-0-0-0-5---4---0-0-0-0-8-7-8-5-0-0-0-0-5---4---|
A |-0-0-0-0-0-0-0-0-0-0-0-0---4---3-0-0-0-0---------0-0-0-0---4---3-|
    *       *       *       *       *       *       *       *

guitar 2
B |-----------------------------------------------------------------|
F#|-----------------------------------------------------------------|
D |-----------------------------------------------------------------|
A |-0-0-0-0-0-0-0-0-0-0-0-0---------0-0-0-0---5-7---0-0-0-0---------|
E |-0-0-0-0-0-0-0-0-0-0-0-0-5---4---0-0-0-0-8-----8-0-0-0-0-5---4---|
A |-0-0-0-0-0-0-0-0-0-0-0-0---4---3-0-0-0-0---------0-0-0-0---4---3-|
    *       *       *       *       *       *       *       *



2:20-2:35

guitar 1
B |-----------------------------------------------------------------|
F#|-----------------------------------------------------------------|
D |-----------------------------------------------------------------|
A |-0-0-0-0-0-0-0-0-0-0-0-0---------0-0-0-0---------0-0-0-0---------|
E |-0-0-0-0-0-0-0-0-0-0-0-0-5---4---0-0-0-0-5-4---4-0-0-0-0-5---4---|
A |-0-0-0-0-0-0-0-0-0-0-0-0---4---3-0-0-0-0-----7---0-0-0-0---4---3-|
    *       *       *       *       *       *       *       *

guitar 2
B |-----------------------------------------------------------------|
F#|-----------------------------------------------------------------|
D |-----------------------------------------------------------------|
A |-0-0-0-0-0-0-0-0-0-0-0-0---------0-0-0-0---------0-0-0-0---------|
E |-0-0-0-0-0-0-0-0-0-0-0-0-5---4---0-0-0-0-8-7-8-7-0-0-0-0-5---4---|
A |-0-0-0-0-0-0-0-0-0-0-0-0---4---3-0-0-0-0---------0-0-0-0---4---3-|
    *       *       *       *       *       *       *       *


guitar 1
B |-----------------------------------------------------------------|
F#|-----------------------------------------------------------------|
D |-----------------------------------------------------------------|
A |-0-0-0-0-0-0-0-0-0-0-0-0---------0-0-0-0---------0-0-0-0-00000000|
E |-0-0-0-0-0-0-0-0-0-0-0-0-5---4---0-0-0-0-8-7-8-5-0-0-0-0-00000000|
A |-0-0-0-0-0-0-0-0-0-0-0-0---4---3-0-0-0-0---------0-0-0-0-00000000|
    *       *       *       *       *       *       *       *

guitar 2
B |-----------------------------------------------------------------|
F#|-----------------------------------------------------------------|
D |-----------------------------------------------------------------|
A |-0-0-0-0-0-0-0-0-0-0-0-0---------0-0-0-0---5-7---0-0-0-0-00000000|
E |-0-0-0-0-0-0-0-0-0-0-0-0-5---4---0-0-0-0-8-----8-0-0-0-0-00000000|
A |-0-0-0-0-0-0-0-0-0-0-0-0---4---3-0-0-0-0---------0-0-0-0-00000000|
    *       *       *       *       *       *       *       *


both guitars
B |----------------------|
F#|----------------------|
D |----------------------|
A |-0000-----------------|
E |-0000-5-------4-------|
A |-0000---3-2-3---3-2-3-|



3:01-3:15

guitar 1
B |----------------------------------------------------------------|
F#|----------------------------------------------------------------|
D |----------------------------------------------------------------|
A |-0~~-----------------------------1~~---------------------4---1--|
E |-0~~-----------------------------1~~---------------------4---1--|
A |-0~~-----------------------------1~~---------------------4---1--|

guitar 2 
B |----------------------------------------------------------------|
F#|----------------------------------------------------------------|
D |-7~~-------------8~~-------------7~~-------------8~~------------|
A |----------------------------------------------------------------|
E |----------------------------------------------------------------|
A |----------------------------------------------------------------|


guitar 1
B |----------------------------------------------------------------|
F#|----------------------------------------------------------------|
D |----------------------------------------------------------------|
A |-0~~-----------------------------1---1---1---1---1---1---4-1-1--|
E |-0~~-----------------------------1---1---1---1---1---1---4-1-1--|
A |-0~~-----------------------------1---1---1---1---1---1---4-1-1--|

guitar 2 
B |----------------------------------------------------------------|
F#|----------------------------------------------------------------|
D |-7~~-------------8~~-------------7~~-------------8~~------------|
A |----------------------------------------------------------------|
E |----------------------------------------------------------------|
A |----------------------------------------------------------------|



3:15-3:40

both guitars
B |-----------------------------------------------------------------|
F#|-----------------------------------------------------------------|
D |-----------------------------------------------------------------|
A |-0~------0-0-4---1~------1-1-0-----------------------------------|
E |-0~------0-0-4---1~------1-1-0-----5-5---5-------5-----5-5-6-6---|
A |-0~------0-0-4---1~------1-1-0---------0---0-0-----0-0-----------|   


B |-----------------------------------------------------------------|
F#|-----------------------------------------------------------------|
D |-----------------------------------4-4-4-4---4-------------------|
A |-0~------0-0-4---1~------1-1-1-----1-1-1-1---1-------------------|
E |-0~------0-0-4---1~------1-1-1-----1-1-1-1---1---5-----4-4-------|
A |-0~------0-0-4---1~------1-1-1-----1-1-1-1---1-----3-2-----3-2-2-|
   

B |-----------------------------------------------------------------|
F#|-----------------------------------------------------------------|
D |-----------------------------------------------------------------|
A |-0~------0-0-4---1~------1-1-0-----------------------------------|
E |-0~------0-0-4---1~------1-1-0-----5-5-5-5-------5-----5-5-6-6---|
A |-0~------0-0-4---1~------1-1-0-------------0-0-----0-0-----------|
   

B |-----------------------------------------------------------------|
F#|-----------------------------------------------------------------|
D |-----------------------------4-----4-4-4-4---4-------------------|
A |-0~------0-0-4---1~------1-1-1-----1-1-1-1---1-------------------|
E |-0~------0-0-4---1~------1-1-1-----1-1-1-1---1---5-----4-4-------|
A |-0~------0-0-4---1~------1-1-1-----1-1-1-1---1-----3-2-----3-2-2-|



3:40-4:00

guitar 1
B |----------------------------------------------------------------|
F#|----------------------------------------------------------------|
D |----------------------------------------------------------------|
A |-0~~-----------------------------1~~----------------------------|
E |-0~~-----------------------------1~~----------------------------|
A |-0~~-----------------------------1~~----------------------------|

guitar 2 
B |----------------------------------------------------------------|
F#|---------------------------------11~~-----8~------10~~----------|
D |-7~~-------------8~~--------------------------------------------|
A |----------------------------------------------------------------|
E |----------------------------------------------------------------|
A |----------------------------------------------------------------|


guitar 1
B |----------------------------------------------------------------|
F#|----------------------------------------------------------------|
D |----------------------------------------------------------------|
A |-0~~------------------------------------------------------------|
E |-0~~------------------------------------------------------------|
A |-0~~------------------------------------------------------------|

guitar 2 
B |----------------------------------------------------------------|
F#|----------------------------------------------------------------|
D |-7~~------------------------------------------------------------|
A |----------------------------------------------------------------|
E |----------------------------------------------------------------|
A |----------------------------------------------------------------|


************************************

| /    slide up
| \    slide down
| h    hammer-on
| p    pull-off
| ~    vibrato
| +    harmonic
| x    Mute note
| b    Bend
| pb   Pre-bend
| br   Bend release
| pbr  Pre-bend release
| brb  Bend release bend
| p.h. pinch harmonic

************************************
Tap to rate this tab
# A B C D E F G H I J K L M N O P Q R S T U V W X Y Z