Guitaretab - guitar tabs
Song name
# A B C D E F G H I J K L M N O P Q R S T U V W X Y Z

Caliban - Dark Shadows tab

-------------------------------------------------------------------------------
			     dark shadows - caliban
----------------------------------------------------------------------------
---
Tabbed by: seanius
Email: die_for_nothing_323@hotmail.com
[ Tab from: http://www.guitaretab.com/c/caliban/57278.html ]
Tuning: drop c CGCFAD              I'm pretty sure this sounds right, may
                                   not be Caliban's way but it still sounds
                                   like "Dark shadows"! rate and comment!!
  CLEAN GUITAR
e|---------------------------------20------|      |---------------|
B|-----------------------------------------|      |---------------|
G|----------18--------------18--------18---|      |---------18----|
D|-------17----17--------17----17-------17-|  X4  |------17----17-|
A|----15--------------15-------------------|      |---15----------|
E|-0~--------------0~----------------------|      |-0-------------|

  DISTORTED GUITAR
e|-----------------------------------------------------------|
B|-----------------------------------------------------------|
G|-----------------------------------------------------------|
D|----------0---0-----------3------------0---0-----------5---|
A|-0--0-0-0-0-0-0---------0-3-----0--0-0-0-0-0-0---------0-5-|
E|-0--3-3-2-0-0-0-2-3-6-5-0-3-----0--3-3-2-0-0-0-2-3-8-7-0-5-|
   .          .           .       .          .           .
Related for Dark Shadows tab