Song name
# A B C D E F G H I J K L M N O P Q R S T U V W X Y Z

Caliban - 100 Suns tab

Drop C-

||--------------------------------------------------------------|
||--------------------------------------------------------------|
||--------------------------------------------------------------|
||--------------------------------------------------------------|
||---------5h8-------------5h8-6h9------------------------------|
||-000-000-----000-000-000--------------------------------------|
   ... ...     ... ... ...
||--------------------------------------------------------------|
||--------------------------------------------------------------|
||--------------------------------------------------------------|
||------------------------------------------------7-7-8-8-8-8---|
||------------5h8----------5h8-6h9------------5h8-5-5-6-6-6-6---|
||-0000000000-----00000000---------0000000000-------------------|
   ..........     ........         ..........
||--------------------------------------------------------------|
||--------------------------------------------------------------|
||--------------------------------------------------------------|
||------------------------------------------------7-7-----8-----|
||------------5h8----------5h8-6h9------------5h8-5-5-----6-----|
||-0000000000-----00000000---------0000000000---------0-0-------|
   ..........     ........         ..........         . .
||--------------------------------------------------------------|
||--------------------------------------------------------------|
||--------------------------------------------------------------|
||-------------------------------------------------7-7-8-8-8----|
||-------------5h8---------5h8-6h9-------------5h8-5-5-6-6-6----|
||-0-0-0-0-0-0-----0-0-0-0---------0-0-0-0-0-0------------------|
   . . . . . .     . . . .         . . . . . .
Tap to rate this tab
# A B C D E F G H I J K L M N O P Q R S T U V W X Y Z