Song name
# A B C D E F G H I J K L M N O P Q R S T U V W X Y Z

Caliban - Song About Killing tab

                         Song About Killing

                             By Caliban
                      The Undying Darkness(2006)

tabbed by: mrbraz
Tuning: Drop C (from low to high:CGCFAD)

So here it is. The ONLY Song About Killing guitar tab!!
The song itself is 
simple but it sounds really cool!
Please rate!!

Legend:
h  :hammer on
p  :pull off
...:palm muting
x  :dead note
000:tremolo picking


Intro

guitar 1
D|----------------------------------------------------------------------|
A|----------------------------------------------------------------------|
F|----------------------------------------------------------------------|
C|----------------------5---------------------------------7------5------|
G|--------5-7--------------8-----------------5-7------------8-7----8-7--|
C|-0-0-0-------0-000-0--------0000000-0-0-0-------0-000-----------------|
 | . . .       . ... .        ....... . . .       . ... 
 |
 |
 |guitar 2
D|-----------------------------------------------------------------------|
A|-----------------------------------------------------------------------|
F|-----------------------------------------------------------------------|
C|-----------------------------------------------------------------------|
G|-0-0-0~~-----0-----0~~--------------0-0-0~~-----0----------------------|
C|-0-0-0~~-----0-000-0~~------0000000-0-0-0~~-----0-000------------------|
   . .         . ...          ....... . .         . ... 

D|-------------------------------------------|
A|-------------------------------------------|
F|-------------------------------------------|
C|----------------------5--------------------|
G|-0-0-0--5-7--0-----0-----8-----------0-----|
C|-0-0-0-------0-000-0--------0000000000-----|
 | . . .       . ... .        ..........         
 |
 |
D|-------------------------------------------|
A|-------------------------------------------|
F|-------------------------------------------|
C|-------------------------------------------|
G|-0-0-0~~-----0-----0~~---------------0-----|
C|-0-0-0~~-----0-000-0~~------0000000000-----|
   . .         . ... .        ..........


D|----------------------------------------------------------------------|
A|----------------------------------------------------------------------|
F|----------------------------------------------------------------------|
C|----------------------5---------------------------------7------5------|
G|-0-0-0--5-7--0-----0-----8----------0-0-0--5-7--0---------8-7----8-7--|
C|-0-0-0-------0-000-0--------0000000-0-0-0-------0-000-----------------|
 | . . .       . ... .        ....... . . .       . ... 
 |
 |
 |
D|----------------------------------------------------------------------|
A|----------------------------------------------------------------------|
F|----------------------------------------------------------------------|
C|----------------------5---------------------------------7------5------|
G|-0-0-0--5-7--0-----0-----8----------0-0-0--5-7--0---------8-7----8-7--|
C|-0-0-0-------0-000-0--------0000000-0-0-0-------0-000-----------------|
   . . .       . ... .        ....... . . .       . ... 

D|----------------------------------------------------------------------|
A|----------------------------------------------------------------------|
F|----------------------------------------------------------------------|
C|----------------------5---------------------------------7------5------|
G|-0-0-0--5-7--0-----0-----8----------0-0-0--5-7--0---------8-7----8-7--|
C|-0-0-0-------0-000-0--------0000000-0-0-0-------0-000-----------------|
 | . . .       . ... .        ....... . . .       . ... 
 |
 |
 |
D|------------------------------------------------------------------------|
A|------------------------------------------------------------------------|
F|--------------------------------------------------------9-------7-------|
C|----------------------5-----------------------------------10-9----10-9--|
G|-0-0-0--5-7--0-----0-----8----------0-0-0--5-7--0-----------------------|
C|-0-0-0-------0-000-0--------0000000-0-0-0-------0-000-------------------|
   . . .       . ... .        ....... . . .       . ... 


Verse 1

both guitars
D|-------------------------------------------------------------------------|
A|-------------------------------------------------------------------------|
F|-------------------------------------------------------------------------|
C|----------------------------3----7-------------------------------7----3--|
G|--------0-0--------1--0-----1----5-----------0-0--------1--0-----5----1--|
C|-00-00--0-0--00-00-1--0--00---00------00-00--0-0--00-00-1--0--00---00----|
   .. ..  . .  .. ..    .  ..   ..    .. ..  . .  .. ..    .  ..   ..
"Iīm here to kill iīm here to die - I feel this pain I feel this hate"


D|-------------------------------------------------------------------------|
A|-------------------------------------------------------------------------|
F|-------------------------------------------------------------------------|
C|----------------------------3----7-------------------------------7----3--|
G|--------0-0--------1--0-----1----5-----------0-0--------1--0-----5----1--|
C|-00-00--0-0--00-00-1--0--00---00------00-00--0-0--00-00-1--0--00---00----|
   .. ..  . .  .. ..    .  ..   ..      .. ..  . .  .. ..    .  ..   ..
"You teach me love you teach me fear - but now youīre getting it all back"


Pre Chorus

both guitars
D|------------------------------------3-3-3-3-----------------2-2-2-------|
A|------------------------------------6-6-6-6-----------------5-5-5-------|
F|------------------------------------5-5-5-5-----------------4-5-4-------|
C|------------------------------------3-3-3-3-----------------2-2-2-------|
G|-0------------8-7-5-3h5p3-3---------3-3-3-3---3/2-----------2-2-2-2/5---|
C|-0-0-0-0-0-0-0-0-0--------3-3-3-3-3-3-3-3-3-3-3/2-2-2-2-2-2-2-2-2-2/5---|
     . . . . . . . .          . . . .         .     . . . . .
   Try         --              to run away     --   but believe me   --

D|-5--------------------------|
A|-8--------------------------|
F|-7--------------------------|
C|-5-----------------7--------|
G|-5-------------------8-7~~--|
C|-5-5-5-5-5-5-5-5------------|
     . . . . . . .
 To die is your fate


Chorus

D|----------------------------------------------------------------------|
A|----------------------------------------------------------------------|
F|----------------------------------------------------------------------|
C|----------------------5---------------------------------7------5------|
G|-0-0-0--5-7--0-----0-----8----------0-0-0--5-7--0---------8-7----8-7--|
c|-0-0-0-------0-000-0--------0000000-0-0-0-------0-000-----------------|
 | . . .       . ... .        ....... . . .       . ... 
 |
 |
 |
D|----------------------------------------------------------------------|
A|----------------------------------------------------------------------|
F|----------------------------------------------------------------------|
C|----------------------5---------------------------------7------5------|
G|-0-0-0--5-7--0-----0-----8----------0-0-0--5-7--0---------8-7----8-7--|
C|-0-0-0-------0-000-0--------0000000-0-0-0-------0-000-----------------|
   . . .       . ... .        ....... . . .       . ... 
                  "This song is about killing"


D|----------------------------------------------------------------------|
A|----------------------------------------------------------------------|
F|----------------------------------------------------------------------|
C|----------------------5---------------------------------7------5------|
G|-0-0-0--5-7--0-----0-----8----------0-0-0--5-7--0---------8-7----8-7--|
C|-0-0-0-------0-000-0--------0000000-0-0-0-------0-000-----------------|
 | . . .       . ... .        ....... . . .       . ... 
 |
 |
 |
D|----------------------------------------------------------------------|
A|----------------------------------------------------------------------|
F|----------------------------------------------------------------------|
C|----------------------5---------------------------------7------5------|
G|-0-0-0--5-7--0-----0-----8----------0-0-0--5-7--0---------8-7----8-7--|
C|-0-0-0-------0-000-0--------0000000-0-0-0-------0-000-----------------|
   . . .       . ... .        ....... . . .       . ... 
                  "A love Letter just for you"


D|----------------------------------------------------------------------|
A|----------------------------------------------------------------------|
F|----------------------------------------------------------------------|
C|----------------------5---------------------------------7------5------|
G|-0-0-0--5-7--0-----0-----8----------0-0-0--5-7--0---------8-7----8-7--|
C|-0-0-0-------0-000-0--------0000000-0-0-0-------0-000-----------------|
 | . . .       . ... .        ....... . . .       . ... 
 |
 |
 |
D|----------------------------------------------------------------------|
A|----------------------------------------------------------------------|
F|----------------------------------------------------------------------|
C|----------------------5---------------------------------7------5------|
G|-0-0-0--5-7--0-----0-----8----------0-0-0--5-7--0---------8-7----8-7--|
C|-0-0-0-------0-000-0--------0000000-0-0-0-------0-000-----------------|
   . . .       . ... .        ....... . . .       . ... 
              "Letīs make it right - letīs make it clear"


D|----------------------------------------------------------------------|
A|----------------------------------------------------------------------|
F|----------------------------------------------------------------------|
C|----------------------5---------------------------------7------5------|
G|-0-0-0--5-7--0-----0-----8----------0-0-0--5-7--0---------8-7----8-7--|
C|-0-0-0-------0-000-0--------0000000-0-0-0-------0-000-----------------|
 | . . .       . ... .        ....... . . .       . ... 
 |
 |
 |
D|------------------------------------------------------------------------|
A|------------------------------------------------------------------------|
F|--------------------------------------------------------9-------7-------|
C|----------------------5-----------------------------------10-9----10-9--|
G|-0-0-0--5-7--0-----0-----8----------0-0-0--5-7--0-----------------------|
C|-0-0-0-------0-000-0--------0000000-0-0-0-------0-000-------------------|
   . . .       . ... .        ....... . . .       . ... 
                    "No one wants you here"


Verse 2

both guitars
D|-----------------------------------------------------------------------|
A|-----------------------------------------------------------------------|
F|-----------------------------------------------------------------------|
C|----------------------------3----7-----------------------------7----3--|
G|--------0-0--------1--0-----1----5---------0-0--------1--0-----5----1--|
C|-00-00--0-0--00-00-1--0--00---00----00-00--0-0--00-00-1--0--00---00----|
   .. ..  . .  .. ..    .  ..   ..    .. ..  . .  .. ..    .  ..   ..
"All I want is to kill I want you dead -The Price too high my life to short"

D|-----------------------------------------------------------------------|
A|-----------------------------------------------------------------------|
F|-----------------------------------------------------------------------|
C|----------------------------3----7-----------------------------7----3--|
G|--------0-0--------1--0-----1----5---------0-0--------1--0-----5----1--|
C|-00-00--0-0--00-00-1--0--00---00----00-00--0-0--00-00-1--0--00---00----|
   .. ..  . .  .. ..    .  ..   ..    .. ..  . .  .. ..    .  ..   ..
"You are my shadow are my demon - You have to burn - For my joy..."


Breakdown

D|-----------------------------------------------------------------------|
A|-----------------------------------------------------------------------|
F|-----------------------------------------------------------------------|
C|-0~~~~~~~~~---0~~~~~~~---0~~~~~~~---0~~~~~~~---0~~~--------------------|
G|-0~~~~~~~~~---0~~~~~~~---0~~~~~~~---0~~~~~~~---0~~~---0-0-0-0-0-0-0-1--|
C|-0~~~~~~~~~---0~~~~~~~---0~~~~~~~---0~~~~~~~---0~~~---0-0-0-0-0-0-0-1--|
 |                                                      . . . . . . . .
 |
 |                           STRUMMING
 |                /                            \
D|-----------------000000-----000000-----000000--------------------------|
A|-----------------333333-----333333-----333333--------------------------|
F|-----------------222222-----222222-----222222--------------------------|
C|-----------------000000-----000000-----000000--------------------------|
G|------------------------------------------------------0-0-0-0-0-0-0-1--|
C|------------------------------------------------------0-0-0-0-0-0-0-1--|
                                                        . . . . . . . .
               I    -      Will     -     Watch you    -    BURN!


D|--------------------------------------------------------|
A|--------------------------------------------------------|
F|--------------------------------------------------------|
C|-------------------------7------------------------------|
G|-0-0-0-0-0--8-10----8------8---0-0-0-0-0--8-10----------|
C|-0-0-0-0-0--------0---0--------0-0-0-0-0--------0h7h8---|
 | . . . . .        .   .        . . . . .
 |
 |
 |                          
D|---------------------------------------------------------|
A|---------------------------------------------------------|
F|---------------------------------------------------------|
C|------------------------7--------------------------------|
G|-0-0-0-0-0--5-7----5------8-----0-0-0-0-0--5-7-----------|
C|-0-0-0-0-0-------0---0----------0-0-0-0-0--------0h7h8---|
   . . . . .       .   .         . . . . .

|--------------------------------------------------------------|
|--------------------------------------------------------------|
|-777777777777-999999999999-10101010101010-1212121212121212----|
|-xxxxxxxxxxxx-xxxxxxxxxxxx-xxxxxxxxxxxxxx-xxxxxxxxxxxxxxxx----|
|-555555555555-777777777777--8-8-8-8-8-8-8-1010101010101010----|
|--\------------------------------------------------------/----|
|   \-------------       STRUMMING     ------------------/
|
|
|------------------------------------------------------------|
|------------------------------------------------------------|
|------------------------------------------------------------|
|------------------------------------------------------------|
|------------------------------------------------------------|
|-000000000000-222222222222-333333333333333-555555555555555--|
  ............ ............ ............... ...............
     "Yeah - better you run before I watch you - BURN!"


D|--------------------------------------------------------|
A|--------------------------------------------------------|
F|--------------------------------------------------------|
C|-------------------------7------------------------------|
G|-0-0-0-0-0--8-10----8------8---0-0-0-0-0--8-10----------|
C|-0-0-0-0-0--------0---0--------0-0-0-0-0--------0h7h8---|
 | . . . . .        .   .        . . . . .
 |
 |
 |
D|---------------------------------------------------------|
A|---------------------------------------------------------|
F|---------------------------------------------------------|
C|------------------------7--------------------------------|
G|-0-0-0-0-0--5-7----5------8-----0-0-0-0-0--5-7-----------|
C|-0-0-0-0-0-------0---0----------0-0-0-0-0--------0h7h8---|
   . . . . .       .   .          . . . . .

D|--------------------------------------------------------|
A|--------------------------------------------------------|
F|--------------------------------------------------------|
C|-------------------------7------------------------------|
G|-0-0-0-0-0--8-10----8------8---0-0-0-0-0--8-10----------|
C|-0-0-0-0-0--------0---0--------0-0-0-0-0--------0h7h8---|
 | . . . . .        .   .        . . . . .
 |
 |
 |
D|---------------------------------------------------------|
A|---------------------------------------------------------|
F|---------------------------------------------------------|
C|------------------------7--------------------------------|
G|-0-0-0-0-0--5-7----5------8-----0-0-0-0-0--5-7-----------|
C|-0-0-0-0-0-------0---0----------0-0-0-0-0--------0h7h8---|
   . . . . .       .   .          . . . . .


Pre Chorus

both guitars
D|------------------------------------3-3-3-3-----------------2-2-2-------|
A|------------------------------------6-6-6-6-----------------5-5-5-------|
F|------------------------------------5-5-5-5-----------------4-5-4-------|
C|--------------8-7-5-----------------3-3-3-3-----------------2-2-2-------|
G|-0------------8-7-5-3h5p3-3---------3-3-3-3---3/2-----------2-2-2-2/5---|
C|-0-0-0-0-0-0-0-0-0--------3-3-3-3-3-3-3-3-3-3-3/2-2-2-2-2-2-2-2-2-2/5---|
     . . . . . . . .          . . . .         .     . . . . .
   Try         --              to run away     --   but believe me   --

D|-5--------------------------|
A|-8--------------------------|
F|-7--------------------------|
C|-5-----------------7--------|
G|-5-------------------8-7~~--|
C|-5-5-5-5-5-5-5-5------------|
     . . . . . . .
 To die is your fate


Chorus

D|----------------------------------------------------------------------|
A|----------------------------------------------------------------------|
F|----------------------------------------------------------------------|
C|----------------------5---------------------------------7------5------|
G|-0-0-0--5-7--0-----0-----8----------0-0-0--5-7--0---------8-7----8-7--|
c|-0-0-0-------0-000-0--------0000000-0-0-0-------0-000-----------------|
 | . . .       . ... .        ....... . . .       . ... 
 |
 |
 |
D|----------------------------------------------------------------------|
A|----------------------------------------------------------------------|
F|----------------------------------------------------------------------|
C|----------------------5---------------------------------7------5------|
G|-0-0-0--5-7--0-----0-----8----------0-0-0--5-7--0---------8-7----8-7--|
C|-0-0-0-------0-000-0--------0000000-0-0-0-------0-000-----------------|
   . . .       . ... .        ....... . . .       . ... 
                  "This song is about killing"


D|----------------------------------------------------------------------|
A|----------------------------------------------------------------------|
F|----------------------------------------------------------------------|
C|----------------------5---------------------------------7------5------|
G|-0-0-0--5-7--0-----0-----8----------0-0-0--5-7--0---------8-7----8-7--|
C|-0-0-0-------0-000-0--------0000000-0-0-0-------0-000-----------------|
 | . . .       . ... .        ....... . . .       . ... 
 |
 |
 |
D|----------------------------------------------------------------------|
A|----------------------------------------------------------------------|
F|----------------------------------------------------------------------|
C|----------------------5---------------------------------7------5------|
G|-0-0-0--5-7--0-----0-----8----------0-0-0--5-7--0---------8-7----8-7--|
C|-0-0-0-------0-000-0--------0000000-0-0-0-------0-000-----------------|
   . . .       . ... .        ....... . . .       . ... 
                  "A love Letter just for you"


D|----------------------------------------------------------------------|
A|----------------------------------------------------------------------|
F|----------------------------------------------------------------------|
C|----------------------5---------------------------------7------5------|
G|-0-0-0--5-7--0-----0-----8----------0-0-0--5-7--0---------8-7----8-7--|
C|-0-0-0-------0-000-0--------0000000-0-0-0-------0-000-----------------|
 | . . .       . ... .        ....... . . .       . ... 
 |
 |
 |
D|----------------------------------------------------------------------|
A|----------------------------------------------------------------------|
F|----------------------------------------------------------------------|
C|----------------------5---------------------------------7------5------|
G|-0-0-0--5-7--0-----0-----8----------0-0-0--5-7--0---------8-7----8-7--|
C|-0-0-0-------0-000-0--------0000000-0-0-0-------0-000-----------------|
   . . .       . ... .        ....... . . .       . ... 
              "Letīs make it right - letīs make it clear"


D|----------------------------------------------------------------------|
A|----------------------------------------------------------------------|
F|----------------------------------------------------------------------|
C|----------------------5---------------------------------7------5------|
G|-0-0-0--5-7--0-----0-----8----------0-0-0--5-7--0---------8-7----8-7--|
C|-0-0-0-------0-000-0--------0000000-0-0-0-------0-000-----------------|
 | . . .       . ... .        ....... . . .       . ... 
 |
 |
 |
D|------------------------------------------------------------------------|
A|------------------------------------------------------------------------|
F|--------------------------------------------------------9-------7-------|
C|----------------------5-----------------------------------10-9----10-9--|
G|-0-0-0--5-7--0-----0-----8----------0-0-0--5-7--0-----------------------|
C|-0-0-0-------0-000-0--------0000000-0-0-0-------0-000-------------------|
   . . .       . ... .        ....... . . .       . ... 
                    "No one wants you here"

DONE!! Thatīs all. Hope you have fun!
Enjoy!!!
Tap to rate this tab
# A B C D E F G H I J K L M N O P Q R S T U V W X Y Z