Guitaretab - guitar tabs
Song name
# A B C D E F G H I J K L M N O P Q R S T U V W X Y Z

Caliban - Sick Of Running Away tab

Artist:Caliban
Song:Sick Of Running Away
Album:The Undying Darkness
Tabber:mrbraz
Tuning:Drop C

Intro
Guitar 1
|----------------------------------------------------------------|
|----------------------------------------------------------------|
|----------------------------------------------------------------|
|----------------------------------------------------------------|
|-----5-----5---5-7-8-7-5--------5-----5---5-7-8-7-5-------------|
|-000---000------------------555---555---------------------------|    
  ...   ...                  ...   ...
                                                                            Guitar 2
|---------------------------------------------------|
|---------------------------------------------------|
|---------------------------------------------------|
|---------------------------------------------------|
|-000---000----0--0--000----555---555----8--8--888--|
|-000---000----0--0--000----555---555----8--8--888--|
  ...   ...    .  .  ...    ...   ...    .  .  ...

then
|--------------------|
|--------------------|
|--------------------|
|-0~~0-0-0~~0-0-0~~0-|
|-0~~0-0-0~~0-0-0~~0-|
|-0~~0-0-0~~0-0-0~~0-|

Verse
both guitars
|-----------------------------------------------------------------------|
|-----------------------------------------------------------------------|
|-----------------------------------------------------------------------|
|-----------------------------------------------------------------------|
|-0-8----5-7-8--0-8----7-8-10---10-10-10----8-7--12-12-12----8-10-12----|
|-0---0---------0---0-----------10-10----10------12-12----12------------|
      .             .                     .                .
"I have no energy to be.....

Pre Chorus
guitar 1
|----------------------------------------------------------|
|----------------------------------------------------------|
|----------------------------------------------------------|
|----------------------------------------------------------|
|-0-0--8---7--0-0-0--8---7--5-5-5--8---7--8-8-8--8---7-8-10|
|-0-0----0----0-0-0----0----5-5-5----5----8-8-8----8-------|
         .             .             .             .
"For Love for Life For Surrender"

guitar 2
|--------------------------------------------------------|
|--------------------------------------------------------|
|--------------------------------------------------------|
|---------------------------------------------8----7-8-10|
|------8---7---------8---7-------8---7-------------------|
|-0-0----0----0-0-0----0-----5-5---5----8-8-8----8-------|
         .             .           .             .
then
|-----------------------------------------------------|
|-----------------------------------------------------|
|-----------------------------------------------------|
|-----------------------------------------------------|
|-000---000----0--0--000----555---555----8--8--888----|
|-000---000----0--0--000----555---555----8--8--888----|
  ...   ...    .  .  ...    ...   ...    .  .  ...

Chorus
|----------------------------------------------|
|----------------------------------------------|
|-333333333/55-22222222------------------------|
|-333333333/55-22222222------------------------|
|-111111111/33-00000000--0-0-3-2-0-2-3-5-3-2---|
|------------------------0-0-3-2-0-2-3-5-3-2---|
                         . . . .   . . . .
"Just One Word..."

|----------------------------------------------|
|----------------------------------------------|
|-333333333/55-22222222------------------------|
|-333333333/55-22222222------------------------|
|-111111111/33-00000000--0-2-3-2-0-2-3-5-3-2---|
|------------------------0-2-3-2-0-2-3-5-3-2---|
                         . .   . . . . . .

Verse
both guitars
|-----------------------------------------------------------------------|
|-----------------------------------------------------------------------|
|-----------------------------------------------------------------------|
|-----------------------------------------------------------------------|
|-0-8----5-7-8--0-8----7-8-10---10-10-10----8-7--12-12-12----8-10-12----|
|-0---0---------0---0-----------10-10----10------12-12----12------------|
      .             .                     .                .
 "But in your eyes, what do I mean?.."
[ Tab from: http://www.guitaretab.com/c/caliban/85878.html ]
Pre Chorus
guitar 1
|----------------------------------------------------------|
|----------------------------------------------------------|
|----------------------------------------------------------|
|----------------------------------------------------------|
|-0-0--8---7--0-0-0--8---7--5-5-5--8---7--8-8-8--8---7-8-10|
|-0-0----0----0-0-0----0----5-5-5----5----8-8-8----8-------|
         .             .             .             .
"For Love for Life For Surrender"

guitar 2
|--------------------------------------------------------|
|--------------------------------------------------------|
|--------------------------------------------------------|
|---------------------------------------------8----7-8-10|
|------8---7---------8---7-------8---7-------------------|
|-0-0----0----0-0-0----0-----5-5---5----8-8-8----8-------|
         .             .           .             .

Bridge
|-------------------------------------------------------------------------|
|-------------------------------------------------------------------------|
|-------------------------------------------------------------------------|
|-5//7----------------------5-5//7------------8-7-3--5-5//7---------------|
|-3//5----------------------3-3//5------------6-5-1--3-3//5---------------|
|------0-0-0-0-0-0-0-0-0-0---------0-0-0-0-0-----------------0-0-0-0-0-0--|
       . . . . . . . . . .         . . . . .                 . . . . . .

|--------------------------|
|--------------------------|
|-33//7777777//99999-------|
|-33//7777777//99999-------|
|-55//5555555//77777-------|
|--------------------------|

Breakdown
|-----------------------------------------------------------------------|
|-----------------------------------------------------------------------|
|-----------------------------------------------------------------------|
|-5//7--------------------5-5//7------------5-5//7-------------5-5//7---|
|-3//5--0-0-----0-0--0-0--3-3//5-0-0--------3-3//5---0-0--0-0--3-3//5---|
|-------0-0-----0-0--0-0---------0-0-----------------0-0--0-0-----------|
        . .     . .  . .         . .                 . .  . .
"Were sick, sick of running away........"

|------------|
|------------|
|------------|
|-8//7--3-5--|
|-6//5--1-3--|
|------------|


Chorus
|----------------------------------------------|
|----------------------------------------------|
|-333333333/55-22222222------------------------|
|-333333333/55-22222222------------------------|
|-111111111/33-00000000--0-0-3-2-0-2-3-5-3-2---|
|------------------------0-0-3-2-0-2-3-5-3-2---|
                         . . . .   . . . .

"Just One Word..."
|----------------------------------------------|
|----------------------------------------------|
|-333333333/55-22222222------------------------|
|-333333333/55-22222222------------------------|
|-111111111/33-00000000--0-2-3-2-0-2-3-5-3-2---|
|------------------------0-2-3-2-0-2-3-5-3-2---|
                         . .   . . . . . .


Outro
Guitar 1
|-----------------------------------------------------|
|-----------------------------------------------------|
|-----------------------------------------------------|
|-----------------------------------------------------|
|-----5-----5---5-7-8-7-5---------5-----5---5-7-8-7-5-|
|-000---000-------------------555---555---------------|
  ...   ...                  ...   ...

Guitar 2
|-----------------------------------------------------|
|-----------------------------------------------------|
|-----------------------------------------------------|
|-----------------------------------------------------|
|-000---000----0--0--000----555---555----8--8--888----|
|-000---000----0--0--000----555---555----8--8--888----|
  ...   ...    .  .  ...    ...   ...    .  .  ...


Verse:
I have no energy to be,
where is my will and drive to be happy?
Youre giving me hope,
but everything seems to be illusion and smoke
For love, for life, for surrender!
Just one word and Ill be yours,
just one touch an Ill burn again.

Chorus:
Just one word for a new time,
cause in your eyes I see myself,
Im sick of running away.

Verse:
But in your eyes
what do I mean?
A name, one among of thousand others?
Nasty and sweet are my thought,
but my desire cant be satisfied.
For love, for life, for surrender!!

The worst shall be over now,
your mental beautyness was stunning,
My feelings for myself
is overgrown of dried plants and Im sick of running away!

Were sick, sick of running away!
Were sick, sick of running away!

Just one word for a new time,
cause in your eyes I see myself, Im sick of running away.

Just one word and Ill be yours,
just one touch and Ill burn again.


Legend:
....:Palm muting
////:Slide


Done!!!!!!!!! Hope its right!! Enjoy!
:)Peace
Related for Sick Of Running Away tab